  0
SECTION
  2
HEADER
  9
$ACADVER
  1
AC1015
  9
$ACADMAINTVER
 70
     6
  9
$DWGCODEPAGE
  3
ANSI_1254
  9
$INSBASE
 10
0.0
 20
0.0
 30
0.0
  9
$EXTMIN
 10
0.0
 20
0.0
 30
0.0
  9
$EXTMAX
 10
279.4
 20
215.9
 30
0.0
  9
$LIMMIN
 10
0.0
 20
0.0
  9
$LIMMAX
 10
279.4
 20
215.9
  9
$ORTHOMODE
 70
     0
  9
$REGENMODE
 70
     1
  9
$FILLMODE
 70
     1
  9
$QTEXTMODE
 70
     0
  9
$MIRRTEXT
 70
     1
  9
$LTSCALE
 40
1.0
  9
$ATTMODE
 70
     1
  9
$TEXTSIZE
 40
3.5
  9
$TRACEWID
 40
1.0
  9
$TEXTSTYLE
  7
Standard
  9
$CLAYER
  8
0
  9
$CELTYPE
  6
ByLayer
  9
$CECOLOR
 62
   256
  9
$CELTSCALE
 40
1.0
  9
$DISPSILH
 70
     0
  9
$DIMSCALE
 40
1.0
  9
$DIMASZ
 40
3.5
  9
$DIMEXO
 40
1.0
  9
$DIMDLI
 40
3.75
  9
$DIMRND
 40
0.0
  9
$DIMDLE
 40
0.0
  9
$DIMEXE
 40
1.0
  9
$DIMTP
 40
0.0
  9
$DIMTM
 40
0.0
  9
$DIMTXT
 40
3.5
  9
$DIMCEN
 40
2.5
  9
$DIMTSZ
 40
0.0
  9
$DIMTOL
 70
     0
  9
$DIMLIM
 70
     0
  9
$DIMTIH
 70
     1
  9
$DIMTOH
 70
     1
  9
$DIMSE1
 70
     0
  9
$DIMSE2
 70
     0
  9
$DIMTAD
 70
     1
  9
$DIMZIN
 70
     0
  9
$DIMBLK
  1

  9
$DIMASO
 70
     1
  9
$DIMSHO
 70
     1
  9
$DIMPOST
  1

  9
$DIMAPOST
  1

  9
$DIMALT
 70
     0
  9
$DIMALTD
 70
     3
  9
$DIMALTF
 40
0.0393700787
  9
$DIMLFAC
 40
1.0
  9
$DIMTOFL
 70
     1
  9
$DIMTVP
 40
0.0
  9
$DIMTIX
 70
     0
  9
$DIMSOXD
 70
     0
  9
$DIMSAH
 70
     0
  9
$DIMBLK1
  1

  9
$DIMBLK2
  1

  9
$DIMSTYLE
  2
ISO-25
  9
$DIMCLRD
 70
     0
  9
$DIMCLRE
 70
     0
  9
$DIMCLRT
 70
     0
  9
$DIMTFAC
 40
1.0
  9
$DIMGAP
 40
1.524
  9
$DIMJUST
 70
     0
  9
$DIMSD1
 70
     0
  9
$DIMSD2
 70
     0
  9
$DIMTOLJ
 70
     0
  9
$DIMTZIN
 70
     0
  9
$DIMALTZ
 70
     0
  9
$DIMALTTZ
 70
     0
  9
$DIMUPT
 70
     0
  9
$DIMDEC
 70
     2
  9
$DIMTDEC
 70
     2
  9
$DIMALTU
 70
     2
  9
$DIMALTTD
 70
     3
  9
$DIMTXSTY
  7
Standard
  9
$DIMAUNIT
 70
     0
  9
$DIMADEC
 70
     2
  9
$DIMALTRND
 40
0.0
  9
$DIMAZIN
 70
     0
  9
$DIMDSEP
 70
    44
  9
$DIMATFIT
 70
     3
  9
$DIMFRAC
 70
     0
  9
$DIMLDRBLK
  1

  9
$DIMLUNIT
 70
     2
  9
$DIMLWD
 70
    -2
  9
$DIMLWE
 70
    -2
  9
$DIMTMOVE
 70
     0
  9
$LUNITS
 70
     2
  9
$LUPREC
 70
     2
  9
$SKETCHINC
 40
1.0
  9
$FILLETRAD
 40
10.0
  9
$AUNITS
 70
     0
  9
$AUPREC
 70
     2
  9
$MENU
  1
.
  9
$ELEVATION
 40
0.0
  9
$PELEVATION
 40
0.0
  9
$THICKNESS
 40
0.0
  9
$LIMCHECK
 70
     0
  9
$CHAMFERA
 40
0.0
  9
$CHAMFERB
 40
0.0
  9
$CHAMFERC
 40
0.0
  9
$CHAMFERD
 40
0.0
  9
$SKPOLY
 70
     0
  9
$TDCREATE
 40
2458985.718103102
  9
$TDUCREATE
 40
2458985.593103102
  9
$TDUPDATE
 40
2458985.718103345
  9
$TDUUPDATE
 40
2458985.593103345
  9
$TDINDWG
 40
0.0000000116
  9
$TDUSRTIMER
 40
0.0000000116
  9
$USRTIMER
 70
     1
  9
$ANGBASE
 50
0.0
  9
$ANGDIR
 70
     0
  9
$PDMODE
 70
     0
  9
$PDSIZE
 40
-1.0
  9
$PLINEWID
 40
0.0
  9
$SPLFRAME
 70
     0
  9
$SPLINETYPE
 70
     6
  9
$SPLINESEGS
 70
     8
  9
$HANDSEED
  5
DD
  9
$SURFTAB1
 70
     6
  9
$SURFTAB2
 70
     6
  9
$SURFTYPE
 70
     6
  9
$SURFU
 70
     6
  9
$SURFV
 70
     6
  9
$UCSBASE
  2

  9
$UCSNAME
  2

  9
$UCSORG
 10
0.0
 20
0.0
 30
0.0
  9
$UCSXDIR
 10
1.0
 20
0.0
 30
0.0
  9
$UCSYDIR
 10
0.0
 20
1.0
 30
0.0
  9
$UCSORTHOREF
  2

  9
$UCSORTHOVIEW
 70
     0
  9
$UCSORGTOP
 10
0.0
 20
0.0
 30
0.0
  9
$UCSORGBOTTOM
 10
0.0
 20
0.0
 30
0.0
  9
$UCSORGLEFT
 10
0.0
 20
0.0
 30
0.0
  9
$UCSORGRIGHT
 10
0.0
 20
0.0
 30
0.0
  9
$UCSORGFRONT
 10
0.0
 20
0.0
 30
0.0
  9
$UCSORGBACK
 10
0.0
 20
0.0
 30
0.0
  9
$PUCSBASE
  2

  9
$PUCSNAME
  2

  9
$PUCSORG
 10
0.0
 20
0.0
 30
0.0
  9
$PUCSXDIR
 10
1.0
 20
0.0
 30
0.0
  9
$PUCSYDIR
 10
0.0
 20
1.0
 30
0.0
  9
$PUCSORTHOREF
  2

  9
$PUCSORTHOVIEW
 70
     0
  9
$PUCSORGTOP
 10
0.0
 20
0.0
 30
0.0
  9
$PUCSORGBOTTOM
 10
0.0
 20
0.0
 30
0.0
  9
$PUCSORGLEFT
 10
0.0
 20
0.0
 30
0.0
  9
$PUCSORGRIGHT
 10
0.0
 20
0.0
 30
0.0
  9
$PUCSORGFRONT
 10
0.0
 20
0.0
 30
0.0
  9
$PUCSORGBACK
 10
0.0
 20
0.0
 30
0.0
  9
$USERI1
 70
     0
  9
$USERI2
 70
     0
  9
$USERI3
 70
     0
  9
$USERI4
 70
     0
  9
$USERI5
 70
     0
  9
$USERR1
 40
0.0
  9
$USERR2
 40
0.0
  9
$USERR3
 40
0.0
  9
$USERR4
 40
0.0
  9
$USERR5
 40
0.0
  9
$WORLDVIEW
 70
     1
  9
$SHADEDGE
 70
     3
  9
$SHADEDIF
 70
    70
  9
$TILEMODE
 70
     1
  9
$MAXACTVP
 70
    64
  9
$PINSBASE
 10
0.0
 20
0.0
 30
0.0
  9
$PLIMCHECK
 70
     0
  9
$PEXTMIN
 10
1.0000000000E+20
 20
1.0000000000E+20
 30
1.0000000000E+20
  9
$PEXTMAX
 10
-1.0000000000E+20
 20
-1.0000000000E+20
 30
-1.0000000000E+20
  9
$PLIMMIN
 10
0.0
 20
0.0
  9
$PLIMMAX
 10
420.0
 20
297.0
  9
$UNITMODE
 70
     0
  9
$VISRETAIN
 70
     1
  9
$PLINEGEN
 70
     0
  9
$PSLTSCALE
 70
     1
  9
$TREEDEPTH
 70
  3020
  9
$CMLSTYLE
  2
Standard
  9
$CMLJUST
 70
     0
  9
$CMLSCALE
 40
20.0
  9
$PROXYGRAPHICS
 70
     1
  9
$MEASUREMENT
 70
     1
  9
$CELWEIGHT
370
    -1
  9
$ENDCAPS
280
     0
  9
$JOINSTYLE
280
     0
  9
$LWDISPLAY
290
     1
  9
$INSUNITS
 70
     4
  9
$HYPERLINKBASE
  1

  9
$STYLESHEET
  1

  9
$XEDIT
290
     1
  9
$CEPSNTYPE
380
     0
  9
$PSTYLEMODE
290
     1
  9
$FINGERPRINTGUID
  2
{f2293729-3954-4e15-a9b5-0462e3e66c0e}
  9
$VERSIONGUID
  2
{FAEB1C32-E019-11D5-929B-00C0DF256EC4}
  9
$EXTNAMES
290
     1
  9
$PSVPSCALE
 40
0.0
  9
$OLESTARTUP
290
     0
  0
ENDSEC
  0
SECTION
  2
CLASSES
  0
CLASS
  1
ACDBDICTIONARYWDFLT
  2
AcDbDictionaryWithDefault
  3
ObjectDBX Classes
 90
        0
280
     0
281
     0
  0
CLASS
  1
VISUALSTYLE
  2
AcDbVisualStyle
  3
ObjectDBX Classes
 90
     4095
280
     0
281
     0
  0
CLASS
  1
MATERIAL
  2
AcDbMaterial
  3
ObjectDBX Classes
 90
     1153
280
     0
281
     0
  0
CLASS
  1
SCALE
  2
AcDbScale
  3
ObjectDBX Classes
 90
     1153
280
     0
281
     0
  0
CLASS
  1
TABLESTYLE
  2
AcDbTableStyle
  3
ObjectDBX Classes
 90
     4095
280
     0
281
     0
  0
CLASS
  1
MLEADERSTYLE
  2
AcDbMLeaderStyle
  3
ACDB_MLEADERSTYLE_CLASS
 90
     4095
280
     0
281
     0
  0
CLASS
  1
SUN
  2
AcDbSun
  3
SCENEOE
 90
     1153
280
     0
281
     0
  0
CLASS
  1
ACDBPLACEHOLDER
  2
AcDbPlaceHolder
  3
ObjectDBX Classes
 90
        0
280
     0
281
     0
  0
CLASS
  1
LAYOUT
  2
AcDbLayout
  3
ObjectDBX Classes
 90
        0
280
     0
281
     0
  0
ENDSEC
  0
SECTION
  2
TABLES
  0
TABLE
  2
VPORT
  5
8
330
0
100
AcDbSymbolTable
 70
     1
  0
VPORT
  5
29
330
8
100
AcDbSymbolTableRecord
100
AcDbViewportTableRecord
  2
*Active
 70
     0
 10
0.0
 20
0.0
 11
1.0
 21
1.0
 12
139.7
 22
107.95
 13
0.0
 23
0.0
 14
10.0
 24
10.0
 15
10.0
 25
10.0
 16
0.0
 26
0.0
 36
1.0
 17
0.0
 27
0.0
 37
0.0
 40
215.9
 41
1.2941176471
 42
50.0
 43
0.0
 44
0.0
 50
0.0
 51
0.0
 71
     0
 72
  2000
 73
     1
 74
     3
 75
     0
 76
     0
 77
     0
 78
     0
281
     0
 65
     1
110
0.0
120
0.0
130
0.0
111
1.0
121
0.0
131
0.0
112
0.0
122
1.0
132
0.0
 79
     0
146
0.0
  0
ENDTAB
  0
TABLE
  2
LTYPE
  5
5
330
0
100
AcDbSymbolTable
 70
     6
  0
LTYPE
  5
14
330
5
100
AcDbSymbolTableRecord
100
AcDbLinetypeTableRecord
  2
ByBlock
 70
     0
  3

 72
    65
 73
     0
 40
0.0
  0
LTYPE
  5
15
330
5
100
AcDbSymbolTableRecord
100
AcDbLinetypeTableRecord
  2
ByLayer
 70
     0
  3

 72
    65
 73
     0
 40
0.0
  0
LTYPE
  5
16
330
5
100
AcDbSymbolTableRecord
100
AcDbLinetypeTableRecord
  2
Continuous
 70
     0
  3
Solid line
 72
    65
 73
     0
 40
0.0
  0
LTYPE
  5
6E
330
5
100
AcDbSymbolTableRecord
100
AcDbLinetypeTableRecord
  2
HIDDEN
 70
     0
  3
Hidden __ __ __ __ __ __ __ __ __ __ __ __ __ __
 72
    65
 73
     2
 40
1.905
 49
1.27
 74
     0
 49
-0.635
 74
     0
  0
LTYPE
  5
6F
330
5
100
AcDbSymbolTableRecord
100
AcDbLinetypeTableRecord
  2
PHANTOM
 70
     0
  3
Phantom ______  __  __  ______  __  __  ______
 72
    65
 73
     6
 40
12.7
 49
6.35
 74
     0
 49
-1.27
 74
     0
 49
1.27
 74
     0
 49
-1.27
 74
     0
 49
1.27
 74
     0
 49
-1.27
 74
     0
  0
LTYPE
  5
70
330
5
100
AcDbSymbolTableRecord
100
AcDbLinetypeTableRecord
  2
CENTER
 70
     0
  3
Center ____ _ ____ _ ____ _ ____ _ ____ _ ____
 72
    65
 73
     4
 40
10.16
 49
6.35
 74
     0
 49
-1.27
 74
     0
 49
1.27
 74
     0
 49
-1.27
 74
     0
  0
LTYPE
  5
71
330
5
100
AcDbSymbolTableRecord
100
AcDbLinetypeTableRecord
  2
CENTERX2
 70
     0
  3
Center (2x) ________  __  ________  __  _____
 72
    65
 73
     4
 40
20.32
 49
12.7
 74
     0
 49
-2.54
 74
     0
 49
2.54
 74
     0
 49
-2.54
 74
     0
  0
LTYPE
  5
72
330
5
100
AcDbSymbolTableRecord
100
AcDbLinetypeTableRecord
  2
DOT2
 70
     0
  3
Dot (.5x) ........................................
 72
    65
 73
     2
 40
0.635
 49
0.0
 74
     0
 49
-0.635
 74
     0
  0
ENDTAB
  0
TABLE
  2
LAYER
  5
2
330
0
100
AcDbSymbolTable
 70
    17
  0
LAYER
  5
10
330
2
100
AcDbSymbolTableRecord
100
AcDbLayerTableRecord
  2
0
 70
     0
 62
     7
  6
Continuous
370
    -3
390
F
  0
LAYER
  5
73
330
2
100
AcDbSymbolTableRecord
100
AcDbLayerTableRecord
  2
FORMAT
 70
     0
 62
     7
  6
Continuous
370
    -3
390
F
  0
LAYER
  5
74
330
2
100
AcDbSymbolTableRecord
100
AcDbLayerTableRecord
  2
YARDIMCI_GEOMETRI
 70
     0
 62
    -6
  6
Continuous
290
     0
370
    -3
390
F
  0
LAYER
  5
75
330
2
100
AcDbSymbolTableRecord
100
AcDbLayerTableRecord
  2
SAYFA_CERCEVESI
 70
     0
 62
     7
  6
Continuous
370
    25
390
F
  0
LAYER
  5
76
330
2
100
AcDbSymbolTableRecord
100
AcDbLayerTableRecord
  2
ANTET
 70
     0
 62
     7
  6
Continuous
370
    -3
390
F
  0
LAYER
  5
77
330
2
100
AcDbSymbolTableRecord
100
AcDbLayerTableRecord
  2
OLCU
 70
     0
 62
   150
  6
Continuous
370
    -3
390
F
  0
LAYER
  5
78
330
2
100
AcDbSymbolTableRecord
100
AcDbLayerTableRecord
  2
METIN
 70
     0
 62
    96
  6
Continuous
370
    -3
390
F
  0
LAYER
  5
79
330
2
100
AcDbSymbolTableRecord
100
AcDbLayerTableRecord
  2
BALON
 70
     0
 62
     5
  6
Continuous
370
    -3
390
F
  0
LAYER
  5
7A
330
2
100
AcDbSymbolTableRecord
100
AcDbLayerTableRecord
  2
VURGU
 70
     0
 62
     7
  6
Continuous
370
    -3
390
F
  0
LAYER
  5
7B
330
2
100
AcDbSymbolTableRecord
100
AcDbLayerTableRecord
  2
SILIK
 70
     0
 62
     7
  6
Continuous
370
    -3
390
F
  0
LAYER
  5
7C
330
2
100
AcDbSymbolTableRecord
100
AcDbLayerTableRecord
  2
MODEL
 70
     0
 62
     7
  6
Continuous
370
    -3
390
F
  0
LAYER
  5
7D
330
2
100
AcDbSymbolTableRecord
100
AcDbLayerTableRecord
  2
DETAYLANDıRMA
 70
     0
 62
   190
  6
Continuous
370
    -3
390
F
  0
LAYER
  5
7E
330
2
100
AcDbSymbolTableRecord
100
AcDbLayerTableRecord
  2
TOLERANS
 70
     0
 62
   230
  6
Continuous
370
    -3
390
F
  0
LAYER
  5
7F
330
2
100
AcDbSymbolTableRecord
100
AcDbLayerTableRecord
  2
MERKEZ_CIZGILERI
 70
     0
 62
    30
  6
Continuous
370
    -3
390
F
  0
LAYER
  5
80
330
2
100
AcDbSymbolTableRecord
100
AcDbLayerTableRecord
  2
KESIT-DETAY_CIZGILERI
 70
     0
 62
     7
  6
Continuous
370
    -3
390
F
  0
LAYER
  5
81
330
2
100
AcDbSymbolTableRecord
100
AcDbLayerTableRecord
  2
\U+041E\U+0421\U+0415\U+0412\U+042B\U+0415
 70
     0
 62
     7
  6
Continuous
370
    -3
390
F
  0
LAYER
  5
82
330
2
100
AcDbSymbolTableRecord
100
AcDbLayerTableRecord
  2
\U+0412\U+041E\U+0414\U+042F\U+041D\U+042B\U+0415_\U+0417\U+041D\U+0410\U+041A\U+0418
 70
     0
 62
    11
  6
Continuous
370
    -3
390
F
  0
ENDTAB
  0
TABLE
  2
STYLE
  5
3
330
0
100
AcDbSymbolTable
 70
     1
  0
STYLE
  5
11
330
3
100
AcDbSymbolTableRecord
100
AcDbTextStyleTableRecord
  2
Standard
 70
     0
 40
0.0
 41
1.0
 50
0.0
 71
     0
 42
3.5
  3
txt
  4

  0
ENDTAB
  0
TABLE
  2
VIEW
  5
6
330
0
100
AcDbSymbolTable
 70
     0
  0
ENDTAB
  0
TABLE
  2
UCS
  5
7
330
0
100
AcDbSymbolTable
 70
     0
  0
ENDTAB
  0
TABLE
  2
APPID
  5
9
330
0
100
AcDbSymbolTable
 70
     1
  0
APPID
  5
12
330
9
100
AcDbSymbolTableRecord
100
AcDbRegAppTableRecord
  2
ACAD
 70
     0
  0
ENDTAB
  0
TABLE
  2
DIMSTYLE
  5
A
330
0
100
AcDbSymbolTable
 70
     1
100
AcDbDimStyleTable
  0
DIMSTYLE
105
27
330
A
100
AcDbSymbolTableRecord
100
AcDbDimStyleTableRecord
  2
ISO-25
 70
     0
 41
2.5
 42
0.625
 43
3.75
 44
1.25
 73
     0
 74
     0
 77
     1
 78
     8
140
2.5
141
2.5
143
0.0393700787
147
0.625
171
     3
172
     1
178
     0
271
     2
272
     2
274
     3
278
    44
283
     0
284
     8
340
11
  0
ENDTAB
  0
TABLE
  2
BLOCK_RECORD
  5
1
330
0
100
AcDbSymbolTable
 70
     3
  0
BLOCK_RECORD
  5
1F
330
1
100
AcDbSymbolTableRecord
100
AcDbBlockTableRecord
  2
*Model_Space
340
22
  0
BLOCK_RECORD
  5
1B
330
1
100
AcDbSymbolTableRecord
100
AcDbBlockTableRecord
  2
*Paper_Space
340
1E
  0
BLOCK_RECORD
  5
23
330
1
100
AcDbSymbolTableRecord
100
AcDbBlockTableRecord
  2
*Paper_Space0
340
26
  0
BLOCK_RECORD
  5
AF
330
1
100
AcDbSymbolTableRecord
100
AcDbBlockTableRecord
  2
SW_CENTERMARKSYMBOL_0
340
0
102
{BLKREFS
331
BA
102
}
  0
BLOCK_RECORD
  5
C3
330
1
100
AcDbSymbolTableRecord
100
AcDbBlockTableRecord
  2
SW_CENTERMARKSYMBOL_1
340
0
102
{BLKREFS
331
CE
102
}
  0
ENDTAB
  0
ENDSEC
  0
SECTION
  2
BLOCKS
  0
BLOCK
  5
20
330
1F
100
AcDbEntity
  8
0
100
AcDbBlockBegin
  2
*Model_Space
 70
     0
 10
0.0
 20
0.0
 30
0.0
  3
*Model_Space
  1

  0
ENDBLK
  5
21
330
1F
100
AcDbEntity
  8
0
100
AcDbBlockEnd
  0
BLOCK
  5
1C
330
1B
100
AcDbEntity
 67
     1
  8
0
100
AcDbBlockBegin
  2
*Paper_Space
 70
     0
 10
0.0
 20
0.0
 30
0.0
  3
*Paper_Space
  1

  0
ENDBLK
  5
1D
330
1B
100
AcDbEntity
 67
     1
  8
0
100
AcDbBlockEnd
  0
BLOCK
  5
24
330
23
100
AcDbEntity
  8
0
100
AcDbBlockBegin
  2
*Paper_Space0
 70
     0
 10
0.0
 20
0.0
 30
0.0
  3
*Paper_Space0
  1

  0
ENDBLK
  5
25
330
23
100
AcDbEntity
  8
0
100
AcDbBlockEnd
  0
BLOCK
  5
B0
330
AF
100
AcDbEntity
  8
0
100
AcDbBlockBegin
  2
SW_CENTERMARKSYMBOL_0
 70
     0
 10
0.0
 20
0.0
 30
0.0
  3
SW_CENTERMARKSYMBOL_0
  1

  0
LINE
  5
B2
330
AF
100
AcDbEntity
  8
FORMAT
 62
     0
100
AcDbLine
 10
0.0
 20
0.0
 30
0.0
 11
0.0
 21
2.5
 31
0.0
  0
LINE
  5
B3
330
AF
100
AcDbEntity
  8
FORMAT
 62
     0
100
AcDbLine
 10
0.0
 20
0.0
 30
0.0
 11
-2.5
 21
0.0
 31
0.0
  0
LINE
  5
B4
330
AF
100
AcDbEntity
  8
FORMAT
 62
     0
100
AcDbLine
 10
0.0
 20
0.0
 30
0.0
 11
0.0
 21
-2.5
 31
0.0
  0
LINE
  5
B5
330
AF
100
AcDbEntity
  8
FORMAT
 62
     0
100
AcDbLine
 10
0.0
 20
0.0
 30
0.0
 11
2.5
 21
0.0
 31
0.0
  0
LINE
  5
B6
330
AF
100
AcDbEntity
  8
FORMAT
 62
     0
100
AcDbLine
 10
0.0
 20
5.0
 30
0.0
 11
0.0
 21
47.5
 31
0.0
  0
LINE
  5
B7
330
AF
100
AcDbEntity
  8
FORMAT
 62
     0
100
AcDbLine
 10
-5.0
 20
0.0
 30
0.0
 11
-47.5
 21
0.0
 31
0.0
  0
LINE
  5
B8
330
AF
100
AcDbEntity
  8
FORMAT
 62
     0
100
AcDbLine
 10
0.0
 20
-5.0
 30
0.0
 11
0.0
 21
-47.5
 31
0.0
  0
LINE
  5
B9
330
AF
100
AcDbEntity
  8
FORMAT
 62
     0
100
AcDbLine
 10
5.0
 20
0.0
 30
0.0
 11
47.5
 21
0.0
 31
0.0
  0
ENDBLK
  5
B1
330
AF
100
AcDbEntity
  8
0
100
AcDbBlockEnd
  0
BLOCK
  5
C4
330
C3
100
AcDbEntity
  8
0
100
AcDbBlockBegin
  2
SW_CENTERMARKSYMBOL_1
 70
     0
 10
0.0
 20
0.0
 30
0.0
  3
SW_CENTERMARKSYMBOL_1
  1

  0
LINE
  5
C6
330
C3
100
AcDbEntity
  8
FORMAT
 62
     0
100
AcDbLine
 10
0.0
 20
0.0
 30
0.0
 11
0.0
 21
2.5
 31
0.0
  0
LINE
  5
C7
330
C3
100
AcDbEntity
  8
FORMAT
 62
     0
100
AcDbLine
 10
0.0
 20
0.0
 30
0.0
 11
-2.5
 21
0.0
 31
0.0
  0
LINE
  5
C8
330
C3
100
AcDbEntity
  8
FORMAT
 62
     0
100
AcDbLine
 10
0.0
 20
0.0
 30
0.0
 11
0.0
 21
-2.5
 31
0.0
  0
LINE
  5
C9
330
C3
100
AcDbEntity
  8
FORMAT
 62
     0
100
AcDbLine
 10
0.0
 20
0.0
 30
0.0
 11
2.5
 21
0.0
 31
0.0
  0
LINE
  5
CA
330
C3
100
AcDbEntity
  8
FORMAT
 62
     0
100
AcDbLine
 10
0.0
 20
5.0
 30
0.0
 11
0.0
 21
47.5
 31
0.0
  0
LINE
  5
CB
330
C3
100
AcDbEntity
  8
FORMAT
 62
     0
100
AcDbLine
 10
-5.0
 20
0.0
 30
0.0
 11
-47.5
 21
0.0
 31
0.0
  0
LINE
  5
CC
330
C3
100
AcDbEntity
  8
FORMAT
 62
     0
100
AcDbLine
 10
0.0
 20
-5.0
 30
0.0
 11
0.0
 21
-47.5
 31
0.0
  0
LINE
  5
CD
330
C3
100
AcDbEntity
  8
FORMAT
 62
     0
100
AcDbLine
 10
5.0
 20
0.0
 30
0.0
 11
47.5
 21
0.0
 31
0.0
  0
ENDBLK
  5
C5
330
C3
100
AcDbEntity
  8
0
100
AcDbBlockEnd
  0
ENDSEC
  0
SECTION
  2
ENTITIES
  0
LINE
  5
83
330
1F
100
AcDbEntity
  8
0
  6
Continuous
 62
     7
370
    25
100
AcDbLine
 10
84.6129941877
 20
102.9811176627
 30
0.0
 11
84.6129941877
 21
3.6207261651
 31
0.0
  0
LINE
  5
84
330
1F
100
AcDbEntity
  8
0
  6
Continuous
 62
     7
370
    25
100
AcDbLine
 10
174.612997764
 20
3.6207261651
 30
0.0
 11
174.612997764
 21
102.9811176627
 31
0.0
  0
ARC
  5
85
330
1F
100
AcDbEntity
  8
0
  6
Continuous
 62
     7
370
    25
100
AcDbCircle
 10
174.6129959759
 20
102.9811158583
 30
0.0
 40
90.0
100
AcDbArc
 50
135.0
 51
180.0
  0
LINE
  5
86
330
1F
100
AcDbEntity
  8
0
  6
Continuous
 62
     7
370
    25
100
AcDbLine
 10
181.7931893405
 20
237.4405387014
 30
0.0
 11
110.9733848956
 21
166.6207286685
 31
0.0
  0
LINE
  5
87
330
1F
100
AcDbEntity
  8
0
  6
Continuous
 62
     7
370
    25
100
AcDbLine
 10
174.612997764
 20
102.9811176627
 30
0.0
 11
245.4328003463
 21
173.8009276956
 31
0.0
  0
LINE
  5
88
330
1F
100
AcDbEntity
  8
0
  6
Continuous
 62
     7
370
    25
100
AcDbLine
 10
129.6129959759
 20
3.6207261651
 30
0.0
 11
174.612997764
 21
3.6207261651
 31
0.0
  0
LINE
  5
89
330
1F
100
AcDbEntity
  8
0
  6
Continuous
 62
     7
370
    25
100
AcDbLine
 10
84.6129941877
 20
3.6207261651
 30
0.0
 11
129.6129959759
 21
3.6207261651
 31
0.0
  0
LWPOLYLINE
  5
8A
330
1F
100
AcDbEntity
  8
0
  6
Continuous
 62
     7
370
    25
100
AcDbPolyline
 90
       25
 70
   128
 43
0.0
 10
213.6129948434
 20
205.6207331985
 10
215.7611462411
 20
203.4725818008
 10
217.8994852241
 20
201.3342353671
 10
220.0182738837
 20
199.215439257
 10
222.1078339156
 20
197.1258792251
 10
224.1586360272
 20
195.0750771134
 10
226.1613222894
 20
193.0724057525
 10
228.1067508396
 20
191.1269697517
 10
229.9860480365
 20
189.2476800054
 10
231.7906382617
 20
187.4430897802
 10
233.5122886237
 20
185.7214394181
 10
235.1431462106
 20
184.0905818313
 10
236.6757604417
 20
182.5579676002
 10
238.103150123
 20
181.1305704682
 10
239.4187959966
 20
179.8149320453
 10
240.6166928943
 20
178.6170276969
 10
241.6913795408
 20
177.5423410504
 10
242.6379460033
 20
176.5957745879
 10
243.4520858463
 20
175.7816347449
 10
244.1300737795
 20
175.1036468118
 10
244.6688178119
 20
174.5648953288
 10
245.0658667024
 20
174.1678538888
 10
245.319395059
 20
173.9143255323
 10
245.4282629427
 20
173.8054576486
 10
245.4328003463
 20
173.8009276956
  0
LWPOLYLINE
  5
8B
330
1F
100
AcDbEntity
  8
0
  6
Continuous
 62
     7
370
    25
100
AcDbPolyline
 90
       25
 70
   128
 43
0.0
 10
181.7931893405
 20
237.4405387014
 10
181.7977304694
 20
237.4359938472
 10
181.9065946277
 20
237.3271259635
 10
182.1601267096
 20
237.073597607
 10
182.5571718749
 20
236.6765561669
 10
183.0959159073
 20
236.137804684
 10
183.7739075657
 20
235.4598167508
 10
184.5880436834
 20
234.6456769078
 10
185.5346138712
 20
233.6991104453
 10
186.6093005177
 20
232.6244237989
 10
187.8072011408
 20
231.4265194505
 10
189.122843289
 20
230.1108810275
 10
190.5502292451
 20
228.6834987968
 10
192.0828472015
 20
227.1508696645
 10
193.713701063
 20
225.5200269788
 10
195.4353514251
 20
223.7983766168
 10
197.2399416503
 20
221.9937714904
 10
199.1192388471
 20
220.1144817441
 10
201.0646673974
 20
218.1690457433
 10
203.0673536595
 20
216.1663743823
 10
205.1181557711
 20
214.1155722707
 10
207.207715803
 20
212.0260122388
 10
209.3265044626
 20
209.9072161286
 10
211.4648508962
 20
207.768869695
 10
213.6129948434
 20
205.6207331985
  0
LINE
  5
8C
330
1F
100
AcDbEntity
  8
0
  6
Continuous
 62
     1
370
    25
100
AcDbLine
 10
84.6129941877
 20
102.9811176627
 30
0.0
 11
174.612997764
 21
102.9811176627
 31
0.0
  0
LWPOLYLINE
  5
8D
330
1F
100
AcDbEntity
  8
0
  6
Continuous
 62
     1
370
    25
100
AcDbPolyline
 90
       49
 70
   128
 43
0.0
 10
110.9733848956
 20
166.6207286685
 10
110.9915382352
 20
166.6025790542
 10
111.1366420176
 20
166.4574715465
 10
111.4261883434
 20
166.1679270833
 10
111.8588528719
 20
165.7352569669
 10
112.4326649245
 20
165.1614430516
 10
113.1450056222
 20
164.4491079419
 10
113.9926237177
 20
163.6014851897
 10
114.9716514286
 20
162.6224639981
 10
116.077623063
 20
161.5164849132
 10
117.3054917839
 20
160.2886143296
 10
118.6496547546
 20
158.9444550841
 10
120.1039801475
 20
157.4901315539
 10
121.6618294951
 20
155.9322747558
 10
123.3160977375
 20
154.2780074447
 10
125.0592351083
 20
152.5348696082
 10
126.8832883455
 20
150.7108184665
 10
128.7799347432
 20
148.8141837686
 10
130.7405205101
 20
146.8535932868
 10
132.7560997691
 20
144.8380175202
 10
134.8174761173
 20
142.7766355842
 10
136.915243895
 20
140.6788650125
 10
139.0398309689
 20
138.5542872518
 10
141.1815441337
 20
136.4125731557
 10
143.3306110215
 20
134.263497886
 10
145.4772248056
 20
132.1168813079
 10
147.6115926292
 20
129.9825134843
 10
149.7239756521
 20
127.870132324
 10
151.8047346857
 20
125.7893788784
 10
153.8443758276
 20
123.7497377365
 10
155.8335933026
 20
121.7605146735
 10
157.763310441
 20
119.8307993978
 10
159.6247225192
 20
117.9693910449
 10
161.4093358752
 20
116.1847758263
 10
163.1090070244
 20
114.485104677
 10
164.7159855005
 20
112.878126201
 10
166.2229324814
 20
111.37117922
 10
167.6229748067
 20
109.9711406201
 10
168.9097236034
 20
108.6843880981
 10
170.0773115393
 20
107.5168001621
 10
171.1204039987
 20
106.4737039774
 10
172.0342475113
 20
105.5598604649
 10
172.8146734771
 20
104.7794419497
 10
173.4581167933
 20
104.1359949082
 10
173.9616419312
 20
103.6324697703
 10
174.3229541119
 20
103.2711538642
 10
174.540403032
 20
103.0537086695
 10
174.612997764
 20
102.9811176627
 10
174.612997764
 20
102.9811176627
  0
LINE
  5
8E
330
1F
100
AcDbEntity
  8
0
  6
Continuous
 62
     7
370
    25
100
AcDbLine
 10
-55.1207524898
 20
205.6207331985
 30
0.0
 11
-55.1207524898
 21
134.8009231656
 31
0.0
  0
LINE
  5
8F
330
1F
100
AcDbEntity
  8
0
  6
Continuous
 62
     7
370
    25
100
AcDbLine
 10
34.8792510865
 20
134.8009231656
 30
0.0
 11
34.8792510865
 21
205.6207331985
 31
0.0
  0
LINE
  5
90
330
1F
100
AcDbEntity
  8
0
  6
Continuous
 62
     7
370
    25
100
AcDbLine
 10
-55.1207524898
 20
134.8009231656
 30
0.0
 11
-55.1207524898
 21
102.9811176627
 31
0.0
  0
LINE
  5
91
330
1F
100
AcDbEntity
  8
0
  6
Continuous
 62
     7
370
    25
100
AcDbLine
 10
34.8792510865
 20
102.9811176627
 30
0.0
 11
34.8792510865
 21
134.8009231656
 31
0.0
  0
LINE
  5
92
330
1F
100
AcDbEntity
  8
0
  6
Continuous
 62
     7
370
    25
100
AcDbLine
 10
-55.1207524898
 20
102.9811176627
 30
0.0
 11
-55.1207524898
 21
3.6207261651
 31
0.0
  0
LINE
  5
93
330
1F
100
AcDbEntity
  8
0
  6
Continuous
 62
     7
370
    25
100
AcDbLine
 10
34.8792510865
 20
3.6207261651
 30
0.0
 11
34.8792510865
 21
102.9811176627
 31
0.0
  0
LWPOLYLINE
  5
94
330
1F
100
AcDbEntity
  8
0
  6
Continuous
 62
     7
370
    25
100
AcDbPolyline
 90
       94
 70
   128
 43
0.0
 10
-55.1207524898
 20
205.6207331985
 10
-55.0180872144
 20
203.4725818008
 10
-54.7105682256
 20
201.3342353671
 10
-54.1995962324
 20
199.215439257
 10
-53.4875032665
 20
197.1258792251
 10
-52.5775377812
 20
195.0750771134
 10
-51.473853475
 20
193.0724057525
 10
-50.18147949
 20
191.1269697517
 10
-48.7063204112
 20
189.2476800054
 10
-47.0551041128
 20
187.4430897802
 10
-45.2353668572
 20
185.7214394181
 10
-43.2554085912
 20
184.0905818313
 10
-41.1242612811
 20
182.5579676002
 10
-38.8516553851
 20
181.1305704682
 10
-36.4479565235
 20
179.8149320453
 10
-33.9241319509
 20
178.6170276969
 10
-31.2916965397
 20
177.5423410504
 10
-28.5626662137
 20
176.5957745879
 10
-25.7494871678
 20
175.7816347449
 10
-22.864998615
 20
175.1036468118
 10
-19.9223610746
 20
174.5648953288
 10
-16.9350004928
 20
174.1678538888
 10
-13.9165486382
 20
173.9143255323
 10
-10.880777327
 20
173.8054576486
 10
-7.8415380033
 20
173.8417568772
 10
-4.8126986424
 20
174.0230593055
 10
-1.808078325
 20
174.3485453694
 10
1.1586134149
 20
174.8166951507
 10
4.0738393379
 20
175.4254224866
 10
6.9242982952
 20
176.1719110578
 10
9.6969852982
 20
177.0527633994
 10
12.3792501924
 20
178.0639710992
 10
14.9588498114
 20
179.2009147971
 10
17.4240178255
 20
180.458393988
 10
19.7635057209
 20
181.8307015269
 10
21.9666386781
 20
183.3115491241
 10
24.0233640013
 20
184.8941865533
 10
25.9242976842
 20
186.5713867515
 10
27.6607672511
 20
188.3355203241
 10
29.224845284
 20
190.1785108417
 10
30.6094015775
 20
192.0919689506
 10
31.8081143139
 20
194.0671476691
 10
32.815514767
 20
196.095046696
 10
33.6270096539
 20
198.1664124101
 10
34.2388885854
 20
200.271782574
 10
34.6483687697
 20
202.4015757411
 10
34.8535763858
 20
204.546046552
 10
34.8535763858
 20
206.6954198449
 10
34.6483687697
 20
208.8398757547
 10
34.2388885854
 20
210.9696689218
 10
33.6270096539
 20
213.0750390857
 10
32.815514767
 20
215.1464047998
 10
31.8081143139
 20
217.1743038266
 10
30.6094015775
 20
219.1494825452
 10
29.224845284
 20
221.0629406541
 10
27.6607672511
 20
222.9059311717
 10
25.9242976842
 20
224.6700647443
 10
24.0233640013
 20
226.3472649425
 10
21.9666386781
 20
227.9299172729
 10
19.7635057209
 20
229.41076487
 10
17.4240178255
 20
230.7830575078
 10
14.9588498114
 20
232.0405515998
 10
12.3792501924
 20
233.1774803966
 10
9.6969852982
 20
234.1886880963
 10
6.9242982952
 20
235.0695553392
 10
4.0738393379
 20
235.8160439103
 10
1.1586134149
 20
236.4247563451
 10
-1.808078325
 20
236.8929210275
 10
-4.8126986424
 20
237.2183921903
 10
-7.8415380033
 20
237.3996946185
 10
-10.880777327
 20
237.4359938472
 10
-13.9165486382
 20
237.3271259635
 10
-16.9350004928
 20
237.073597607
 10
-19.9223610746
 20
236.6765561669
 10
-22.864998615
 20
236.137804684
 10
-25.7494871678
 20
235.4598167508
 10
-28.5626662137
 20
234.6456769078
 10
-31.2916965397
 20
233.6991104453
 10
-33.9241319509
 20
232.6244237989
 10
-36.4479565235
 20
231.4265194505
 10
-38.8516553851
 20
230.1108810275
 10
-41.1242612811
 20
228.6834987968
 10
-43.2554085912
 20
227.1508696645
 10
-45.2353668572
 20
225.5200269788
 10
-47.0551041128
 20
223.7983766168
 10
-48.7063204112
 20
221.9937714904
 10
-50.18147949
 20
220.1144817441
 10
-51.473853475
 20
218.1690457433
 10
-52.5775377812
 20
216.1663743823
 10
-53.4875032665
 20
214.1155722707
 10
-54.1995962324
 20
212.0260122388
 10
-54.7105682256
 20
209.9072161286
 10
-55.0180872144
 20
207.768869695
 10
-55.1207524898
 20
205.6207331985
  0
LWPOLYLINE
  5
95
330
1F
100
AcDbEntity
  8
0
  6
Continuous
 62
     7
370
    25
100
AcDbPolyline
 90
       85
 70
   128
 43
0.0
 10
-46.9207515182
 20
205.6207331985
 10
-46.8178515496
 20
207.5653198331
 10
-46.5097253384
 20
209.4990286201
 10
-45.9980976941
 20
211.4110562175
 10
-45.2858296396
 20
213.2907035916
 10
-44.3769035103
 20
215.1274654239
 10
-43.2764043273
 20
216.9110450118
 10
-41.9904862704
 20
218.6314883798
 10
-40.526337287
 20
220.2791693776
 10
-38.8921492906
 20
221.8448790877
 10
-37.0970604183
 20
223.3198556274
 10
-35.1511066021
 20
224.6958586543
 10
-33.065175003
 20
225.9651842683
 10
-30.8509295048
 20
227.1207246154
 10
-28.5207511099
 20
228.1560274928
 10
-26.0876727464
 20
229.06531125
 10
-23.5653001057
 20
229.8434796899
 10
-20.9677408623
 20
230.4861965745
 10
-18.3095208542
 20
230.9898409217
 10
-15.6055063183
 20
231.3516113132
 10
-12.8708182076
 20
231.5694960921
 10
-10.1207507016
 20
231.6422584623
 10
-7.3706831956
 20
231.5694960921
 10
-4.635995085
 20
231.3516113132
 10
-1.931980549
 20
230.9898409217
 10
0.726239459
 20
230.4861965745
 10
3.3237987025
 20
229.8434796899
 10
5.8461713431
 20
229.06531125
 10
8.2792497067
 20
228.1560274928
 10
10.6094281016
 20
227.1207246154
 10
12.8236735998
 20
225.9651842683
 10
14.9096051989
 20
224.6958586543
 10
16.8555590151
 20
223.3198556274
 10
18.6506478874
 20
221.8448790877
 10
20.2848358838
 20
220.2791693776
 10
21.7489848671
 20
218.6314883798
 10
23.0349029241
 20
216.9110450118
 10
24.135402107
 20
215.1274654239
 10
25.0443282364
 20
213.2907035916
 10
25.7565962909
 20
211.4110562175
 10
26.2682239352
 20
209.4990286201
 10
26.5763501463
 20
207.5653198331
 10
26.679250115
 20
205.6207331985
 10
26.5763501463
 20
203.6761316627
 10
26.2682239352
 20
201.7424228757
 10
25.7565962909
 20
199.8303952783
 10
25.0443282364
 20
197.9507479041
 10
24.135402107
 20
196.114000973
 10
23.0349029241
 20
194.3304064839
 10
21.7489848671
 20
192.609963116
 10
20.2848358838
 20
190.9622821181
 10
18.6506478874
 20
189.396572408
 10
16.8555590151
 20
187.9215958684
 10
14.9096051989
 20
186.5455928414
 10
12.8236735998
 20
185.2762821286
 10
10.6094281016
 20
184.1207268804
 10
8.2792497067
 20
183.0854240029
 10
5.8461713431
 20
182.1761402457
 10
3.3237987025
 20
181.3979718059
 10
0.726239459
 20
180.7552549213
 10
-1.931980549
 20
180.2516105741
 10
-4.635995085
 20
179.8898401826
 10
-7.3706831956
 20
179.6719554036
 10
-10.1207507016
 20
179.5991930335
 10
-12.8708182076
 20
179.6719554036
 10
-15.6055063183
 20
179.8898401826
 10
-18.3095208542
 20
180.2516105741
 10
-20.9677408623
 20
180.7552549213
 10
-23.5653001057
 20
181.3979718059
 10
-26.0876727464
 20
182.1761402457
 10
-28.5207511099
 20
183.0854240029
 10
-30.8509295048
 20
184.1207268804
 10
-33.065175003
 20
185.2762821286
 10
-35.1511066021
 20
186.5455928414
 10
-37.0970604183
 20
187.9215958684
 10
-38.8921492906
 20
189.396572408
 10
-40.526337287
 20
190.9622821181
 10
-41.9904862704
 20
192.609963116
 10
-43.2764043273
 20
194.3304064839
 10
-44.3769035103
 20
196.114000973
 10
-45.2858296396
 20
197.9507479041
 10
-45.9980976941
 20
199.8303952783
 10
-46.5097253384
 20
201.7424228757
 10
-46.8178515496
 20
203.6761316627
 10
-46.9207515182
 20
205.6207331985
  0
LINE
  5
96
330
1F
100
AcDbEntity
  8
0
  6
Continuous
 62
     7
370
    25
100
AcDbLine
 10
-55.1207524898
 20
3.6207261651
 30
0.0
 11
34.8792510865
 21
3.6207261651
 31
0.0
  0
LWPOLYLINE
  5
97
330
1F
100
AcDbEntity
  8
0
  6
Continuous
 62
     1
370
    25
100
AcDbPolyline
 90
       25
 70
   128
 43
0.0
 10
-10.1207507016
 20
102.9811176627
 10
-7.0828120863
 20
103.0537086695
 10
-4.0587348105
 20
103.2711538642
 10
-1.0623171168
 20
103.6324697703
 10
1.8927684812
 20
104.1359949082
 10
4.7930401577
 20
104.7794419497
 10
7.6252619563
 20
105.5598604649
 10
10.3765155015
 20
106.4737039774
 10
13.0342419086
 20
107.5168001621
 10
15.5863190828
 20
108.6843880981
 10
18.021099904
 20
109.9711406201
 10
20.3274774192
 20
111.37117922
 10
22.4949258206
 20
112.878126201
 10
24.5135563252
 20
114.485104677
 10
26.3741562901
 20
116.1847758263
 10
28.0682395039
 20
117.9693910449
 10
29.5880759893
 20
119.8307993978
 10
30.926732981
 20
121.7605146735
 10
32.0780935524
 20
123.7497377365
 10
33.03691622
 20
125.7893788784
 10
33.7988163171
 20
127.870132324
 10
34.3603255985
 20
129.9825134843
 10
34.7188736139
 20
132.1168813079
 10
34.8728324113
 20
134.263497886
 10
34.8792510865
 20
134.8009231656
  0
LWPOLYLINE
  5
98
330
1F
100
AcDbEntity
  8
0
  6
Continuous
 62
     1
370
    25
100
AcDbPolyline
 90
       25
 70
   128
 43
0.0
 10
-55.1207524898
 20
134.8009231656
 10
-55.1143338146
 20
134.263497886
 10
-54.9603750171
 20
132.1168813079
 10
-54.6018270018
 20
129.9825134843
 10
-54.0403177204
 20
127.870132324
 10
-53.2784176232
 20
125.7893788784
 10
-52.3195949556
 20
123.7497377365
 10
-51.1682343843
 20
121.7605146735
 10
-49.8295773925
 20
119.8307993978
 10
-48.3097409071
 20
117.9693910449
 10
-46.6156576933
 20
116.1847758263
 10
-44.7550577285
 20
114.485104677
 10
-42.7364272239
 20
112.878126201
 10
-40.5689788224
 20
111.37117922
 10
-38.2626013072
 20
109.9711406201
 10
-35.827820486
 20
108.6843880981
 10
-33.2757433118
 20
107.5168001621
 10
-30.6180169048
 20
106.4737039774
 10
-27.8667633595
 20
105.5598604649
 10
-25.0345415609
 20
104.7794419497
 10
-22.1342698844
 20
104.1359949082
 10
-19.1791842865
 20
103.6324697703
 10
-16.1827665927
 20
103.2711538642
 10
-13.1586893169
 20
103.0537086695
 10
-10.1207507016
 20
102.9811176627
  0
LINE
  5
99
330
1F
100
AcDbEntity
  8
0
  6
Continuous
 62
     1
370
    25
100
AcDbLine
 10
-10.1207507016
 20
102.9811176627
 30
0.0
 11
34.8792510865
 21
102.9811176627
 31
0.0
  0
LINE
  5
9A
330
1F
100
AcDbEntity
  8
0
  6
Continuous
 62
     1
370
    25
100
AcDbLine
 10
-55.1207524898
 20
102.9811176627
 30
0.0
 11
-10.1207507016
 21
102.9811176627
 31
0.0
  0
LINE
  5
9B
330
1F
100
AcDbEntity
  8
0
  6
Continuous
 62
     7
370
    25
100
AcDbLine
 10
277.9295017198
 20
102.9811176627
 30
0.0
 11
277.9295017198
 21
3.6207261651
 31
0.0
  0
LINE
  5
9C
330
1F
100
AcDbEntity
  8
0
  6
Continuous
 62
     7
370
    25
100
AcDbLine
 10
367.9295052961
 20
3.6207261651
 30
0.0
 11
367.9295052961
 21
102.9811176627
 31
0.0
  0
LINE
  5
9D
330
1F
100
AcDbEntity
  8
0
  6
Continuous
 62
     7
370
    25
100
AcDbLine
 10
367.9295052961
 20
102.9811176627
 30
0.0
 11
367.9295052961
 21
134.8009231656
 31
0.0
  0
LINE
  5
9E
330
1F
100
AcDbEntity
  8
0
  6
Continuous
 62
     7
370
    25
100
AcDbLine
 10
277.9295017198
 20
134.8009231656
 30
0.0
 11
277.9295017198
 21
102.9811176627
 31
0.0
  0
LINE
  5
9F
330
1F
100
AcDbEntity
  8
0
  6
Continuous
 62
     7
370
    25
100
AcDbLine
 10
277.9295017198
 20
205.6207331985
 30
0.0
 11
277.9295017198
 21
134.8009231656
 31
0.0
  0
LINE
  5
A0
330
1F
100
AcDbEntity
  8
0
  6
Continuous
 62
     7
370
    25
100
AcDbLine
 10
367.9295052961
 20
134.8009231656
 30
0.0
 11
367.9295052961
 21
205.6207331985
 31
0.0
  0
LINE
  5
A1
330
1F
100
AcDbEntity
  8
0
  6
Continuous
 62
     7
370
    25
100
AcDbLine
 10
277.9295017198
 20
3.6207261651
 30
0.0
 11
367.9295052961
 21
3.6207261651
 31
0.0
  0
LWPOLYLINE
  5
A2
330
1F
100
AcDbEntity
  8
0
  6
Continuous
 62
     7
370
    25
100
AcDbPolyline
 90
       49
 70
   128
 43
0.0
 10
277.9295017198
 20
205.6207331985
 10
277.9551764206
 20
206.6954198449
 10
278.1603840367
 20
208.8398757547
 10
278.569864221
 20
210.9696689218
 10
279.1817431525
 20
213.0750390857
 10
279.9932380394
 20
215.1464047998
 10
281.0006384925
 20
217.1743038266
 10
282.1993512288
 20
219.1494825452
 10
283.5839075223
 20
221.0629406541
 10
285.1479855553
 20
222.9059311717
 10
286.8844551221
 20
224.6700647443
 10
288.785388805
 20
226.3472649425
 10
290.8421141282
 20
227.9299172729
 10
293.0452470854
 20
229.41076487
 10
295.3847349808
 20
230.7830575078
 10
297.849902995
 20
232.0405515998
 10
300.4295026139
 20
233.1774803966
 10
303.1117675081
 20
234.1886880963
 10
305.8844545112
 20
235.0695553392
 10
308.7349134684
 20
235.8160439103
 10
311.6501393915
 20
236.4247563451
 10
314.6168311313
 20
236.8929210275
 10
317.6214514487
 20
237.2183921903
 10
320.6502908096
 20
237.3996946185
 10
323.6895301333
 20
237.4359938472
 10
326.7253014446
 20
237.3271259635
 10
329.7437532992
 20
237.073597607
 10
332.7311138809
 20
236.6765561669
 10
335.6737514213
 20
236.137804684
 10
338.5582399741
 20
235.4598167508
 10
341.37141902
 20
234.6456769078
 10
344.1004493461
 20
233.6991104453
 10
346.7328847573
 20
232.6244237989
 10
349.2567093298
 20
231.4265194505
 10
351.6604081914
 20
230.1108810275
 10
353.9330140874
 20
228.6834987968
 10
356.0641613976
 20
227.1508696645
 10
358.0441196636
 20
225.5200269788
 10
359.8638569192
 20
223.7983766168
 10
361.5150732175
 20
221.9937714904
 10
362.9902322963
 20
220.1144817441
 10
364.2826062814
 20
218.1690457433
 10
365.3862905875
 20
216.1663743823
 10
366.2962560729
 20
214.1155722707
 10
367.0083490387
 20
212.0260122388
 10
367.5193210319
 20
209.9072161286
 10
367.8268400208
 20
207.768869695
 10
367.9295052961
 20
205.6207331985
 10
367.9295052961
 20
205.6207331985
  0
LINE
  5
A3
330
1F
100
AcDbEntity
  8
0
  6
Continuous
 62
     1
370
    25
100
AcDbLine
 10
277.9295017198
 20
102.9811176627
 30
0.0
 11
367.9295052961
 21
102.9811176627
 31
0.0
  0
LWPOLYLINE
  5
A4
330
1F
100
AcDbEntity
  8
0
  6
Continuous
 62
     1
370
    25
100
AcDbPolyline
 90
       48
 70
   128
 43
0.0
 10
277.9295017198
 20
134.8009231656
 10
277.9872623459
 20
136.4125731557
 10
278.243659176
 20
138.5542872518
 10
278.70395232
 20
140.6788650125
 10
279.3660332636
 20
142.7766355842
 10
280.2268845216
 20
144.8380175202
 10
281.2825796381
 20
146.8535932868
 10
282.5282980875
 20
148.8141837686
 10
283.958358802
 20
150.7108184665
 10
285.5662387983
 20
152.5348696082
 10
287.3445955292
 20
154.2780074447
 10
289.2853190378
 20
155.9322747558
 10
291.379554309
 20
157.4901315539
 10
293.6177422479
 20
158.9444550841
 10
295.9896736965
 20
160.2886143296
 10
298.4845266864
 20
161.5164849132
 10
301.0909148679
 20
162.6224639981
 10
303.7969489769
 20
163.6014851897
 10
306.5902796761
 20
164.4491079419
 10
309.4581627474
 20
165.1614430516
 10
312.3875131086
 20
165.7352569669
 10
315.3649634868
 20
166.1679270833
 10
318.3769291454
 20
166.4574715465
 10
321.409667139
 20
166.6025790542
 10
324.4493398769
 20
166.6025790542
 10
327.4820778706
 20
166.4574715465
 10
330.4940435291
 20
166.1679270833
 10
333.4714939073
 20
165.7352569669
 10
336.4008442686
 20
165.1614430516
 10
339.2687273399
 20
164.4491079419
 10
342.0620580391
 20
163.6014851897
 10
344.7680921481
 20
162.6224639981
 10
347.3744803295
 20
161.5164849132
 10
349.8693333194
 20
160.2886143296
 10
352.241264768
 20
158.9444550841
 10
354.4794527069
 20
157.4901315539
 10
356.5736879781
 20
155.9322747558
 10
358.5144114867
 20
154.2780074447
 10
360.2927682177
 20
152.5348696082
 10
361.900648214
 20
150.7108184665
 10
363.3307089285
 20
148.8141837686
 10
364.5764273778
 20
146.8535932868
 10
365.6321224943
 20
144.8380175202
 10
366.4929737524
 20
142.7766355842
 10
367.155054696
 20
140.6788650125
 10
367.6153478399
 20
138.5542872518
 10
367.87174467
 20
136.4125731557
 10
367.9295052961
 20
134.8009231656
  0
LINE
  5
A5
330
1F
100
AcDbEntity
  8
0
  6
Continuous
 62
     7
370
    25
100
AcDbLine
 10
213.6129948434
 20
386.4988612476
 30
0.0
 11
142.7931903985
 21
386.4988612476
 31
0.0
  0
LINE
  5
A6
330
1F
100
AcDbEntity
  8
0
  6
Continuous
 62
     7
370
    25
100
AcDbLine
 10
142.7931903985
 20
296.4988576713
 30
0.0
 11
213.6129948434
 21
296.4988576713
 31
0.0
  0
LINE
  5
A7
330
1F
100
AcDbEntity
  8
0
  6
Continuous
 62
     7
370
    25
100
AcDbLine
 10
142.7931903985
 20
386.4988612476
 30
0.0
 11
129.6129959759
 21
386.4988612476
 31
0.0
  0
LINE
  5
A8
330
1F
100
AcDbEntity
  8
0
  6
Continuous
 62
     7
370
    25
100
AcDbLine
 10
129.6129959759
 20
296.4988576713
 30
0.0
 11
142.7931903985
 21
296.4988576713
 31
0.0
  0
CIRCLE
  5
A9
330
1F
100
AcDbEntity
  8
0
  6
Continuous
 62
     7
370
    25
100
AcDbCircle
 10
129.6129959759
 20
341.4988594595
 30
0.0
 40
36.80000000000001
  0
CIRCLE
  5
AA
330
1F
100
AcDbEntity
  8
0
  6
Continuous
 62
     7
370
    25
100
AcDbCircle
 10
129.6129959759
 20
341.4988594595
 30
0.0
 40
45.0
  0
LWPOLYLINE
  5
AB
330
1F
100
AcDbEntity
  8
0
  6
Continuous
 62
     7
370
    25
100
AcDbPolyline
 90
       48
 70
   128
 43
0.0
 10
213.6129948434
 20
386.4988612476
 10
215.7611462411
 20
386.3961959723
 10
217.8994852241
 20
386.0886769834
 10
220.0182738837
 20
385.5777049902
 10
222.1078339156
 20
384.8656120244
 10
224.1586360272
 20
383.955646539
 10
226.1613222894
 20
382.8519622329
 10
228.1067508396
 20
381.5595882478
 10
229.9860480365
 20
380.084429169
 10
231.7906382617
 20
378.4332128707
 10
233.5122886237
 20
376.6134756151
 10
235.1431462106
 20
374.6335173491
 10
236.6757604417
 20
372.5023700389
 10
238.103150123
 20
370.2297641429
 10
239.4187959966
 20
367.8260652813
 10
240.6166928943
 20
365.3022407088
 10
241.6913795408
 20
362.6698052975
 10
242.6379460033
 20
359.9407749715
 10
243.4520858463
 20
357.1275959256
 10
244.1300737795
 20
354.2431073728
 10
244.6688178119
 20
351.3004698324
 10
245.0658667024
 20
348.3131092507
 10
245.319395059
 20
345.2946573961
 10
245.4282629427
 20
342.2588860848
 10
245.391963714
 20
339.2196467611
 10
245.2106612858
 20
336.1908074002
 10
244.8851826724
 20
333.1861870828
 10
244.41701799
 20
330.219495343
 10
243.8083055552
 20
327.3042694199
 10
243.0618169841
 20
324.4538104626
 10
242.1809646424
 20
321.6811234596
 10
241.1697569426
 20
318.9988585654
 10
240.0328132447
 20
316.4192589465
 10
238.7753266033
 20
313.9540909323
 10
237.4030265149
 20
311.6146030369
 10
235.9221789178
 20
309.4114700797
 10
234.3395414885
 20
307.3547447565
 10
232.6623338398
 20
305.4538110736
 10
230.8982077178
 20
303.7173415068
 10
229.0552097496
 20
302.1532634738
 10
227.1417516407
 20
300.7687071803
 10
225.1665729221
 20
299.5699944439
 10
223.1386738952
 20
298.5625939909
 10
221.0673081812
 20
297.751099104
 10
218.9619305667
 20
297.1392201725
 10
216.8321523007
 20
296.7297399881
 10
214.6876814898
 20
296.5245323721
 10
213.6129948434
 20
296.4988576713
  0
LWPOLYLINE
  5
AC
330
1F
100
AcDbEntity
  8
0
  6
Continuous
 62
     1
370
    25
100
AcDbPolyline
 90
       25
 70
   128
 43
0.0
 10
174.612997764
 20
341.4988594595
 10
174.540403032
 20
338.4609208441
 10
174.3229541119
 20
335.4368435684
 10
173.9616419312
 20
332.4404258746
 10
173.4581167933
 20
329.4853402767
 10
172.8146734771
 20
326.5850686002
 10
172.0342475113
 20
323.7528468016
 10
171.1204039987
 20
321.0015932563
 10
170.0773115393
 20
318.3438668492
 10
168.9097236034
 20
315.7917896751
 10
167.6229748067
 20
313.3570088538
 10
166.2229324814
 20
311.0506313386
 10
164.7159855005
 20
308.8831829372
 10
163.1090070244
 20
306.8645524326
 10
161.4093358752
 20
305.0039524677
 10
159.6247225192
 20
303.3098692539
 10
157.763310441
 20
301.7900327685
 10
155.8335933026
 20
300.4513757768
 10
153.8443758276
 20
299.3000152054
 10
151.8047346857
 20
298.3411925378
 10
149.7239756521
 20
297.5792924407
 10
147.6115926292
 20
297.0177831593
 10
145.4772248056
 20
296.659235144
 10
143.3306110215
 20
296.5052763465
 10
142.7931903985
 20
296.4988576713
  0
LWPOLYLINE
  5
AD
330
1F
100
AcDbEntity
  8
0
  6
Continuous
 62
     1
370
    25
100
AcDbPolyline
 90
       25
 70
   128
 43
0.0
 10
142.7931903985
 20
386.4988612476
 10
143.3306110215
 20
386.4924425724
 10
145.4772248056
 20
386.338483775
 10
147.6115926292
 20
385.9799357596
 10
149.7239756521
 20
385.4184264782
 10
151.8047346857
 20
384.6565263811
 10
153.8443758276
 20
383.6977037135
 10
155.8335933026
 20
382.5463431421
 10
157.763310441
 20
381.2076861504
 10
159.6247225192
 20
379.687849665
 10
161.4093358752
 20
377.9937664512
 10
163.1090070244
 20
376.1331664863
 10
164.7159855005
 20
374.1145359817
 10
166.2229324814
 20
371.9470875803
 10
167.6229748067
 20
369.6407100651
 10
168.9097236034
 20
367.2059292439
 10
170.0773115393
 20
364.6538520697
 10
171.1204039987
 20
361.9961256626
 10
172.0342475113
 20
359.2448721173
 10
172.8146734771
 20
356.4126503187
 10
173.4581167933
 20
353.5123786423
 10
173.9616419312
 20
350.5572930443
 10
174.3229541119
 20
347.5608753505
 10
174.540403032
 20
344.5367980748
 10
174.612997764
 20
341.4988594595
  0
LWPOLYLINE
  5
AE
330
1F
100
AcDbEntity
  8
0
  6
Continuous
 62
     1
370
    25
100
AcDbPolyline
 90
       39
 70
   128
 43
0.0
 10
137.3337751378
 20
377.4798216763
 10
137.0028557379
 20
377.3762064519
 10
135.1232102264
 20
376.6639383975
 10
133.2864586387
 20
375.7550122681
 10
131.5028722987
 20
374.6545130852
 10
129.7824260494
 20
373.3685950282
 10
128.1347412972
 20
371.9044460449
 10
126.5690326348
 20
370.2702580485
 10
125.0940558624
 20
368.4751691762
 10
123.7180598203
 20
366.52921536
 10
122.4487397943
 20
364.4432837608
 10
121.2931943249
 20
362.2290382627
 10
120.2578849282
 20
359.8988598677
 10
119.3486030337
 20
357.4657815042
 10
118.5704317998
 20
354.9434088635
 10
117.9277251598
 20
352.3458496201
 10
117.4240752246
 20
349.6876296121
 10
117.0623001766
 20
346.9836150761
 10
116.8444228482
 20
344.2489269654
 10
116.7716614094
 20
341.4988594595
 10
116.8444228482
 20
338.7487919535
 10
117.0623001766
 20
336.0141038428
 10
117.4240752246
 20
333.3100893068
 10
117.9277251598
 20
330.6518692988
 10
118.5704317998
 20
328.0543100554
 10
119.3486030337
 20
325.5319374147
 10
120.2578849282
 20
323.0988590512
 10
121.2931943249
 20
320.7686806562
 10
122.4487397943
 20
318.5544351581
 10
123.7180598203
 20
316.4685035589
 10
125.0940558624
 20
314.5225497428
 10
126.5690326348
 20
312.7274608704
 10
128.1347412972
 20
311.0932728741
 10
129.7824260494
 20
309.6291238907
 10
131.5028722987
 20
308.3432058337
 10
133.2864586387
 20
307.2427066508
 10
135.1232102264
 20
306.3337805214
 10
137.0028557379
 20
305.621512467
 10
137.3337751378
 20
305.5178972426
  0
INSERT
  5
BA
330
1F
100
AcDbEntity
  8
FORMAT
 62
     7
100
AcDbBlockReference
  2
SW_CENTERMARKSYMBOL_0
 10
129.6129959759
 20
341.4988594595
 30
0.0
  0
LINE
  5
BB
330
1F
100
AcDbEntity
  8
0
  6
Continuous
 62
     7
370
    25
100
AcDbLine
 10
213.6129948434
 20
-76.1819456175
 30
0.0
 11
142.7931903985
 21
-76.1819456175
 31
0.0
  0
LINE
  5
BC
330
1F
100
AcDbEntity
  8
0
  6
Continuous
 62
     7
370
    25
100
AcDbLine
 10
142.7931903985
 20
-166.1819491937
 30
0.0
 11
213.6129948434
 21
-166.1819491937
 31
0.0
  0
LINE
  5
BD
330
1F
100
AcDbEntity
  8
0
  6
Continuous
 62
     7
370
    25
100
AcDbLine
 10
129.6129959759
 20
-166.1819491937
 30
0.0
 11
142.7931903985
 21
-166.1819491937
 31
0.0
  0
LINE
  5
BE
330
1F
100
AcDbEntity
  8
0
  6
Continuous
 62
     7
370
    25
100
AcDbLine
 10
142.7931903985
 20
-76.1819456175
 30
0.0
 11
129.6129959759
 21
-76.1819456175
 31
0.0
  0
LWPOLYLINE
  5
BF
330
1F
100
AcDbEntity
  8
0
  6
Continuous
 62
     7
370
    25
100
AcDbPolyline
 90
       94
 70
   128
 43
0.0
 10
213.6129948434
 20
-166.1819491937
 10
215.7611462411
 20
-166.0792839184
 10
217.8994852241
 20
-165.7717649295
 10
220.0182738837
 20
-165.2607929363
 10
222.1078339156
 20
-164.5486999705
 10
224.1586360272
 20
-163.6387344852
 10
226.1613222894
 20
-162.535050179
 10
228.1067508396
 20
-161.242676194
 10
229.9860480365
 20
-159.7675171151
 10
231.7906382617
 20
-158.1163008168
 10
233.5122886237
 20
-156.2965635612
 10
235.1431462106
 20
-154.3166052952
 10
236.6757604417
 20
-152.1854579851
 10
238.103150123
 20
-149.9128520891
 10
239.4187959966
 20
-147.5091532275
 10
240.6166928943
 20
-144.9853286549
 10
241.6913795408
 20
-142.3528932437
 10
242.6379460033
 20
-139.6238629177
 10
243.4520858463
 20
-136.8106838718
 10
244.1300737795
 20
-133.926195319
 10
244.6688178119
 20
-130.9835577786
 10
245.0658667024
 20
-127.9961971968
 10
245.319395059
 20
-124.9777453422
 10
245.4282629427
 20
-121.9419740309
 10
245.391963714
 20
-118.9027347073
 10
245.2106612858
 20
-115.8738953463
 10
244.8851826724
 20
-112.869275029
 10
244.41701799
 20
-109.9025832891
 10
243.8083055552
 20
-106.987357366
 10
243.0618169841
 20
-104.1368984088
 10
242.1809646424
 20
-101.3642114058
 10
241.1697569426
 20
-98.6819465115
 10
240.0328132447
 20
-96.1023468926
 10
238.7753266033
 20
-93.6371788784
 10
237.4030265149
 20
-91.2976909831
 10
235.9221789178
 20
-89.0945580259
 10
234.3395414885
 20
-87.0378327027
 10
232.6623338398
 20
-85.1368990197
 10
230.8982077178
 20
-83.4004294529
 10
229.0552097496
 20
-81.8363514199
 10
227.1417516407
 20
-80.4517951265
 10
225.1665729221
 20
-79.2530823901
 10
223.1386738952
 20
-78.245681937
 10
221.0673081812
 20
-77.4341870501
 10
218.9619305667
 20
-76.8223081186
 10
216.8321523007
 20
-76.4128279343
 10
214.6876814898
 20
-76.2076203182
 10
212.5383081969
 20
-76.2076203182
 10
210.393837386
 20
-76.4128279343
 10
208.2640591201
 20
-76.8223081186
 10
206.1586815056
 20
-77.4341870501
 10
204.0873232421
 20
-78.245681937
 10
202.0594167646
 20
-79.2530823901
 10
200.0842380461
 20
-80.4517951265
 10
198.1707799372
 20
-81.8363514199
 10
196.3277894195
 20
-83.4004294529
 10
194.5636632975
 20
-85.1368990197
 10
192.8864481982
 20
-87.0378327027
 10
191.303810769
 20
-89.0945580259
 10
189.8229631718
 20
-91.2976909831
 10
188.4506668087
 20
-93.6371788784
 10
187.193176442
 20
-96.1023468926
 10
186.0562364694
 20
-98.6819465115
 10
185.0450287696
 20
-101.3642114058
 10
184.1641727027
 20
-104.1368984088
 10
183.4176841315
 20
-106.987357366
 10
182.8089716967
 20
-109.9025832891
 10
182.3408070144
 20
-112.869275029
 10
182.0153321263
 20
-115.8738953463
 10
181.834029698
 20
-118.9027347073
 10
181.7977304694
 20
-121.9419740309
 10
181.9065946277
 20
-124.9777453422
 10
182.1601267096
 20
-127.9961971968
 10
182.5571718749
 20
-130.9835577786
 10
183.0959159073
 20
-133.926195319
 10
183.7739075657
 20
-136.8106838718
 10
184.5880436834
 20
-139.6238629177
 10
185.5346138712
 20
-142.3528932437
 10
186.6093005177
 20
-144.9853286549
 10
187.8072011408
 20
-147.5091532275
 10
189.122843289
 20
-149.9128520891
 10
190.5502292451
 20
-152.1854579851
 10
192.0828472015
 20
-154.3166052952
 10
193.713701063
 20
-156.2965635612
 10
195.4353514251
 20
-158.1163008168
 10
197.2399416503
 20
-159.7675171151
 10
199.1192388471
 20
-161.242676194
 10
201.0646673974
 20
-162.535050179
 10
203.0673536595
 20
-163.6387344852
 10
205.1181557711
 20
-164.5486999705
 10
207.207715803
 20
-165.2607929363
 10
209.3265044626
 20
-165.7717649295
 10
211.4648508962
 20
-166.0792839184
 10
213.6129948434
 20
-166.1819491937
  0
LWPOLYLINE
  5
C0
330
1F
100
AcDbEntity
  8
0
  6
Continuous
 62
     7
370
    25
100
AcDbPolyline
 90
       85
 70
   128
 43
0.0
 10
213.6129948434
 20
-157.9819482222
 10
211.6684082087
 20
-157.8790482536
 10
209.7346845206
 20
-157.5709220424
 10
207.8226643738
 20
-157.0592943981
 10
205.9430169996
 20
-156.3470263436
 10
204.106262618
 20
-155.4381002143
 10
202.3226755794
 20
-154.3376010313
 10
200.6022322115
 20
-153.0516829744
 10
198.954543763
 20
-151.587533991
 10
197.3888340529
 20
-149.9533459946
 10
195.9138575133
 20
-148.1582571223
 10
194.5378619369
 20
-146.2123033061
 10
193.2685437735
 20
-144.126371707
 10
192.1129959759
 20
-141.9121262088
 10
191.0776893731
 20
-139.5819478139
 10
190.1684093412
 20
-137.1488694503
 10
189.3902371761
 20
-134.6264968097
 10
188.7475314673
 20
-132.0289375662
 10
188.2438796696
 20
-129.3707175582
 10
187.8821055528
 20
-126.6667030222
 10
187.6642282244
 20
-123.9320149116
 10
187.5914658543
 20
-121.1819474056
 10
187.6642282244
 20
-118.4318798996
 10
187.8821055528
 20
-115.697191789
 10
188.2438796696
 20
-112.993177253
 10
188.7475314673
 20
-110.3349572449
 10
189.3902371761
 20
-107.7373980015
 10
190.1684093412
 20
-105.2150253608
 10
191.0776893731
 20
-102.7819469973
 10
192.1129959759
 20
-100.4517686024
 10
193.2685437735
 20
-98.2375231042
 10
194.5378619369
 20
-96.1515915051
 10
195.9138575133
 20
-94.2056376889
 10
197.3888340529
 20
-92.4105488166
 10
198.954543763
 20
-90.7763608202
 10
200.6022322115
 20
-89.3122118368
 10
202.3226755794
 20
-88.0262937799
 10
204.106262618
 20
-86.9257945969
 10
205.9430169996
 20
-86.0168684676
 10
207.8226643738
 20
-85.3046004131
 10
209.7346845206
 20
-84.7929727688
 10
211.6684082087
 20
-84.4848465576
 10
213.6129948434
 20
-84.381946589
 10
215.5575889286
 20
-84.4848465576
 10
217.4913051661
 20
-84.7929727688
 10
219.4033327636
 20
-85.3046004131
 10
221.2829801377
 20
-86.0168684676
 10
223.1197270688
 20
-86.9257945969
 10
224.9033141073
 20
-88.0262937799
 10
226.6237574753
 20
-89.3122118368
 10
228.2714459237
 20
-90.7763608202
 10
229.8371556338
 20
-92.4105488166
 10
231.3121321734
 20
-94.2056376889
 10
232.6881277498
 20
-96.1515915051
 10
233.9574459132
 20
-98.2375231042
 10
235.1129937109
 20
-100.4517686024
 10
236.1483040389
 20
-102.7819469973
 10
237.0575803455
 20
-105.2150253608
 10
237.835756236
 20
-107.7373980015
 10
238.47846567
 20
-110.3349572449
 10
238.9821100172
 20
-112.993177253
 10
239.3438878592
 20
-115.697191789
 10
239.5617651876
 20
-118.4318798996
 10
239.6345275577
 20
-121.1819474056
 10
239.5617651876
 20
-123.9320149116
 10
239.3438878592
 20
-126.6667030222
 10
238.9821100172
 20
-129.3707175582
 10
238.47846567
 20
-132.0289375662
 10
237.835756236
 20
-134.6264968097
 10
237.0575803455
 20
-137.1488694503
 10
236.1483040389
 20
-139.5819478139
 10
235.1129937109
 20
-141.9121262088
 10
233.9574459132
 20
-144.126371707
 10
232.6881277498
 20
-146.2123033061
 10
231.3121321734
 20
-148.1582571223
 10
229.8371556338
 20
-149.9533459946
 10
228.2714459237
 20
-151.587533991
 10
226.6237574753
 20
-153.0516829744
 10
224.9033141073
 20
-154.3376010313
 10
223.1197270688
 20
-155.4381002143
 10
221.2829801377
 20
-156.3470263436
 10
219.4033327636
 20
-157.0592943981
 10
217.4913051661
 20
-157.5709220424
 10
215.5575889286
 20
-157.8790482536
 10
213.6129948434
 20
-157.9819482222
  0
ARC
  5
C1
330
1F
100
AcDbEntity
  8
0
  6
Continuous
 62
     7
370
    25
100
AcDbCircle
 10
129.6129959759
 20
-121.1819474056
 30
0.0
 40
45.00000000000001
100
AcDbArc
 50
90.0
 51
270.0
  0
LWPOLYLINE
  5
C2
330
1F
100
AcDbEntity
  8
0
  6
Continuous
 62
     1
370
    25
100
AcDbPolyline
 90
       48
 70
   128
 43
0.0
 10
142.7931903985
 20
-76.1819456175
 10
141.1815441337
 20
-76.2397062435
 10
139.0398309689
 20
-76.4961030736
 10
136.915243895
 20
-76.9563962176
 10
134.8174761173
 20
-77.6184771612
 10
132.7560997691
 20
-78.4793284192
 10
130.7405205101
 20
-79.5350235357
 10
128.7799347432
 20
-80.7807419851
 10
126.8832883455
 20
-82.2108026996
 10
125.0592351083
 20
-83.8186826959
 10
123.3160977375
 20
-85.5970394268
 10
121.6618294951
 20
-87.5377629354
 10
120.1039801475
 20
-89.6319982066
 10
118.6496547546
 20
-91.8701861456
 10
117.3054917839
 20
-94.2421175941
 10
116.077623063
 20
-96.736970584
 10
114.9716514286
 20
-99.3433587655
 10
113.9926237177
 20
-102.0493928745
 10
113.1450056222
 20
-104.8427235737
 10
112.4326649245
 20
-107.710606645
 10
111.8588528719
 20
-110.6399570062
 10
111.4261883434
 20
-113.6174073845
 10
111.1366420176
 20
-116.629373043
 10
110.9915382352
 20
-119.6621110366
 10
110.9915382352
 20
-122.7017837746
 10
111.1366420176
 20
-125.7345217682
 10
111.4261883434
 20
-128.7464874267
 10
111.8588528719
 20
-131.723937805
 10
112.4326649245
 20
-134.6532881662
 10
113.1450056222
 20
-137.5211712375
 10
113.9926237177
 20
-140.3145019367
 10
114.9716514286
 20
-143.0205360457
 10
116.077623063
 20
-145.6269242271
 10
117.3054917839
 20
-148.121777217
 10
118.6496547546
 20
-150.4937086656
 10
120.1039801475
 20
-152.7318966046
 10
121.6618294951
 20
-154.8261318758
 10
123.3160977375
 20
-156.7668553844
 10
125.0592351083
 20
-158.5452121153
 10
126.8832883455
 20
-160.1530921116
 10
128.7799347432
 20
-161.5831528261
 10
130.7405205101
 20
-162.8288712754
 10
132.7560997691
 20
-163.884566392
 10
134.8174761173
 20
-164.74541765
 10
136.915243895
 20
-165.4074985936
 10
139.0398309689
 20
-165.8677917376
 10
141.1815441337
 20
-166.1241885677
 10
142.7931903985
 20
-166.1819491937
  0
INSERT
  5
CE
330
1F
100
AcDbEntity
  8
FORMAT
 62
     7
100
AcDbBlockReference
  2
SW_CENTERMARKSYMBOL_1
 10
129.6129959759
 20
-121.1819474056
 30
0.0
  0
LINE
  5
CF
330
1F
100
AcDbEntity
  8
0
  6
Continuous
 62
     7
370
    25
100
AcDbLine
 10
296.2995627188
 20
-152.9481642343
 30
0.0
 11
296.2995627188
 21
-234.079978977
 31
0.0
  0
LINE
  5
D0
330
1F
100
AcDbEntity
  8
0
  6
Continuous
 62
     7
370
    25
100
AcDbLine
 10
386.2995637073
 20
-234.079978977
 30
0.0
 11
386.2995637073
 21
-152.9481642343
 31
0.0
  0
LINE
  5
D1
330
1F
100
AcDbEntity
  8
0
  6
Continuous
 62
     7
370
    25
100
AcDbLine
 10
361.7253879702
 20
-12.3495945016
 30
0.0
 11
311.6482259806
 21
-99.0857899562
 31
0.0
  0
LINE
  5
D2
330
1F
100
AcDbEntity
  8
0
  6
Continuous
 62
     7
370
    25
100
AcDbLine
 10
389.5905108112
 20
-144.0857869352
 30
0.0
 11
439.6676760936
 21
-57.3495956635
 31
0.0
  0
SPLINE
  5
D3
330
1F
100
AcDbEntity
  8
0
  6
Continuous
 62
     7
370
    25
100
AcDbSpline
210
0.0
220
0.0
230
1.0
 70
     8
 71
     3
 72
    22
 73
    18
 74
     0
 42
0.000000001
 43
0.00000001
 40
0.0
 40
0.0
 40
0.0
 40
0.0
 40
0.0411498580053845
 40
0.1119238309587101
 40
0.1828069852215784
 40
0.2538557485393588
 40
0.3251286503068929
 40
0.3966799273788092
 40
0.4685552119828744
 40
0.5407882997354385
 40
0.6133950814423942
 40
0.6863681601073865
 40
0.7596702951056022
 40
0.833229105788509
 40
0.9069130522787653
 40
0.980539598901986
 40
0.9999999999999999
 40
0.9999999999999999
 40
0.9999999999999999
 40
0.9999999999999999
 10
311.6482259805595
 20
-99.0857899561548
 30
0.0
 10
311.2549508932649
 20
-99.77619992684089
 30
0.0
 10
310.1852788087373
 20
-101.6540515792371
 30
0.0
 10
308.5364381271004
 20
-104.7745275181622
 30
0.0
 10
306.7367433776288
 20
-108.4588209989082
 30
0.0
 10
305.0642073480711
 20
-112.2031716433761
 30
0.0
 10
303.520268161365
 20
-116.0026334532871
 30
0.0
 10
302.1096066055007
 20
-119.8539448034059
 30
0.0
 10
300.8366845552702
 20
-123.7531672719148
 30
0.0
 10
299.7067302403219
 20
-127.695989061356
 30
0.0
 10
298.7255100854581
 20
-131.6773083618835
 30
0.0
 10
297.8992473725498
 20
-135.690903576765
 30
0.0
 10
297.2346802904482
 20
-139.7290491364623
 30
0.0
 10
296.7380310279977
 20
-143.7819269006658
 30
0.0
 10
296.4176957567558
 20
-147.8367562629774
 30
0.0
 10
296.3074332927554
 20
-150.8919930716192
 30
0.0
 10
296.300923608465
 20
-152.5926346196627
 30
0.0
 10
296.2995627187762
 20
-152.9481642342762
 30
0.0
  0
SPLINE
  5
D4
330
1F
100
AcDbEntity
  8
0
  6
Continuous
 62
     7
370
    25
100
AcDbSpline
210
0.0
220
0.0
230
1.0
 70
     8
 71
     3
 72
    20
 73
    16
 74
     0
 42
0.000000001
 43
0.00000001
 40
0.0
 40
0.0
 40
0.0
 40
0.0
 40
0.0438607937063974
 40
0.1334422728367951
 40
0.2200822570417438
 40
0.3047074728637506
 40
0.3881337396983009
 40
0.4710435112111175
 40
0.5539752834857824
 40
0.6372891803046633
 40
0.7211511196534892
 40
0.805697421288946
 40
0.8909348498110816
 40
0.9767682074788276
 40
1.0
 40
1.0
 40
1.0
 40
1.0
 10
386.299750733943
 20
-152.9703658774424
 30
0.0
 10
386.299602573417
 20
-152.9752689503205
 30
0.0
 10
386.2991518091769
 20
-152.9901860809385
 30
0.0
 10
386.3087929346859
 20
-152.8341845198194
 30
0.0
 10
386.3474464821642
 20
-152.5137760230824
 30
0.0
 10
386.4270781265975
 20
-152.0314251189835
 30
0.0
 10
386.5583809778246
 20
-151.4091225737072
 30
0.0
 10
386.7507344008011
 20
-150.6564278253244
 30
0.0
 10
387.011424725875
 20
-149.7884662884007
 30
0.0
 10
387.3452436999365
 20
-148.8219651003782
 30
0.0
 10
387.7545814589447
 20
-147.7765774054924
 30
0.0
 10
388.2373772479975
 20
-146.6730365161441
 30
0.0
 10
388.7937818460529
 20
-145.5371342225491
 30
0.0
 10
389.2518128704451
 20
-144.6653675365683
 30
0.0
 10
389.5345783656583
 20
-144.1899189425421
 30
0.0
 10
389.5948097897709
 20
-144.0886444009331
 30
0.0
  0
LWPOLYLINE
  5
D5
330
1F
100
AcDbEntity
  8
0
  6
Continuous
 62
     7
370
    25
100
AcDbPolyline
 90
       94
 70
   128
 43
0.0
 10
309.4797567952
 20
-215.7107957311
 10
311.7004991033
 20
-214.5126052485
 10
314.0562934142
 20
-213.4036951377
 10
316.5363924462
 20
-212.3891261219
 10
319.1294792764
 20
-211.4735274321
 10
321.8237238115
 20
-210.6610763724
 10
324.6068297083
 20
-209.9554803572
 10
327.4661061555
 20
-209.3599598036
 10
330.3884975085
 20
-208.8772310239
 10
333.3606748262
 20
-208.5094959605
 10
336.369073409
 20
-208.2584326825
 10
339.3999705063
 20
-208.125187021
 10
342.4395366836
 20
-208.1103687683
 10
345.4738990421
 20
-208.2140425532
 10
348.4892136593
 20
-208.4357377256
 10
351.4717248575
 20
-208.7744415136
 10
354.4078244729
 20
-209.2286089077
 10
357.284113759
 20
-209.796164942
 10
360.0874666067
 20
-210.4745259835
 10
362.8050980328
 20
-211.2605906082
 10
365.4246017175
 20
-212.1507764774
 10
367.9340316633
 20
-213.1410188172
 10
370.3219311714
 20
-214.2268023527
 10
372.5774109614
 20
-215.4031699093
 10
374.6901734552
 20
-216.6647577207
 10
376.6505863692
 20
-218.0058044585
 10
378.4496973671
 20
-219.4201961868
 10
380.0793032891
 20
-220.9014759141
 10
381.5319655459
 20
-222.4428859349
 10
382.8010552283
 20
-224.0373938708
 10
383.8807850472
 20
-225.6777232748
 10
384.7662271142
 20
-227.3563912675
 10
385.4533366487
 20
-229.0657374305
 10
385.9389855645
 20
-230.7979614428
 10
386.2209545665
 20
-232.545161098
 10
386.2979568587
 20
-234.2993642386
 10
386.1696434126
 20
-236.052565252
 10
385.8365976986
 20
-237.7967661291
 10
385.3003396374
 20
-239.5240091586
 10
384.5633150633
 20
-241.2264103823
 10
383.6288891387
 20
-242.8962059757
 10
382.5013239638
 20
-244.5257742975
 10
381.1857640882
 20
-246.10768075
 10
379.6882141207
 20
-247.6347089528
 10
378.0155025094
 20
-249.099887735
 10
376.1752673826
 20
-250.4965358051
 10
374.1759014786
 20
-251.8182783358
 10
372.0265282731
 20
-253.0590850761
 10
369.7369549753
 20
-254.2132944444
 10
367.3176274184
 20
-255.2756395705
 10
364.7795883235
 20
-256.2412754296
 10
362.1344112812
 20
-257.105792624
 10
359.3941720221
 20
-257.8652491747
 10
356.571371038
 20
-258.5161786948
 10
353.6788868254
 20
-259.0556112989
 10
350.7299218844
 20
-259.481086529
 10
347.7379250112
 20
-259.7906617182
 10
344.7165531016
 20
-259.9829249165
 10
341.6795908094
 20
-260.0569986923
 10
338.6408925938
 20
-260.0125462151
 10
335.6143260851
 20
-259.8497689751
 10
332.6137009617
 20
-259.5694098237
 10
329.6527057297
 20
-259.1727499325
 10
326.7448524053
 20
-258.6615951075
 10
323.9034106604
 20
-258.0382803506
 10
321.1413426265
 20
-257.3056504714
 10
318.4712528454
 20
-256.4670464008
 10
315.9053230736
 20
-255.5262949265
 10
313.4552592688
 20
-254.4876902547
 10
311.1322464804
 20
-253.3559679689
 10
308.9468755033
 20
-252.1362961426
 10
306.9091263327
 20
-250.834235375
 10
305.0282902907
 20
-249.4557303313
 10
303.312954386
 20
-248.0070672592
 10
301.7709401519
 20
-246.4948599703
 10
300.4092887462
 20
-244.926004742
 10
299.2342056337
 20
-243.3076635904
 10
298.2510632207
 20
-241.6472171291
 10
297.4643369755
 20
-239.9522428997
 10
296.8776212341
 20
-238.2304758338
 10
296.4935923213
 20
-236.4897717573
 10
296.3140045998
 20
-234.7380716537
 10
296.3396733477
 20
-232.9833674495
 10
296.5704866123
 20
-231.2336677986
 10
297.0053880883
 20
-229.4969562637
 10
297.6423929225
 20
-227.78115482
 10
298.4785942995
 20
-226.0940942021
 10
299.5101779294
 20
-224.4434690436
 10
300.7324385119
 20
-222.8368162079
 10
302.1397975163
 20
-221.2814619445
 10
303.7258328166
 20
-219.784504781
 10
305.4833083257
 20
-218.3527740851
 10
307.4042051119
 20
-216.9928029773
 10
309.4797567952
 20
-215.7107957311
  0
LWPOLYLINE
  5
D6
330
1F
100
AcDbEntity
  8
0
  6
Continuous
 62
     7
370
    25
100
AcDbPolyline
 90
       85
 70
   128
 43
0.0
 10
315.278033088
 20
-219.0580693862
 10
313.4062029714
 20
-220.2226622807
 10
311.6903645973
 20
-221.4647514282
 10
310.1401129592
 20
-222.7773896086
 10
308.764117137
 20
-224.1532365061
 10
307.570073211
 20
-225.5845980573
 10
306.5646568471
 20
-227.0634690297
 10
305.7534920152
 20
-228.5815784525
 10
305.1411167456
 20
-230.1304382777
 10
304.7309541526
 20
-231.7013844391
 10
304.5252972882
 20
-233.2856327366
 10
304.5252972882
 20
-234.8743252174
 10
304.7309541526
 20
-236.4585735149
 10
305.1411167456
 20
-238.0295196763
 10
305.7534920152
 20
-239.5783795016
 10
306.5646568471
 20
-241.0964889243
 10
307.570073211
 20
-242.5753598968
 10
308.764117137
 20
-244.006721448
 10
310.1401129592
 20
-245.3825683455
 10
311.6903645973
 20
-246.6952065258
 10
313.4062029714
 20
-247.9372956734
 10
315.278033088
 20
-249.1018885679
 10
317.2953857358
 20
-250.1824730933
 10
319.4469803766
 20
-251.1730055026
 10
321.7207827682
 20
-252.0679467239
 10
324.1040777331
 20
-252.862292204
 10
326.5835373183
 20
-253.5515990901
 10
329.1452945521
 20
-254.1320136025
 10
331.7750221403
 20
-254.6002890924
 10
334.4580167595
 20
-254.9538058108
 10
337.1792701805
 20
-255.1905876357
 10
339.9235660737
 20
-255.3093108164
 10
342.6755603523
 20
-255.3093108164
 10
345.4198562456
 20
-255.1905876357
 10
348.1411096666
 20
-254.9538058108
 10
350.8241042858
 20
-254.6002890924
 10
353.4538318739
 20
-254.1320136025
 10
356.0155891078
 20
-253.5515990901
 10
358.495048693
 20
-252.862292204
 10
360.8783436579
 20
-252.0679467239
 10
363.1521460495
 20
-251.1730055026
 10
365.3037406903
 20
-250.1824730933
 10
367.3210933381
 20
-249.1018885679
 10
369.1929234547
 20
-247.9372956734
 10
370.9087618288
 20
-246.6952065258
 10
372.4590134669
 20
-245.3825683455
 10
373.8350092891
 20
-244.006721448
 10
375.029053215
 20
-242.5753598968
 10
376.034469579
 20
-241.0964889243
 10
376.8456344109
 20
-239.5783795016
 10
377.4580096805
 20
-238.0295196763
 10
377.8681722735
 20
-236.4585735149
 10
378.0738291379
 20
-234.8743252174
 10
378.0738291379
 20
-233.2856327366
 10
377.8681722735
 20
-231.7013844391
 10
377.4580096805
 20
-230.1304382777
 10
376.8456344109
 20
-228.5815784525
 10
376.034469579
 20
-227.0634690297
 10
375.029053215
 20
-225.5845980573
 10
373.8350092891
 20
-224.1532365061
 10
372.4590134669
 20
-222.7773896086
 10
370.9087618288
 20
-221.4647514282
 10
369.1929234547
 20
-220.2226622807
 10
367.3210933381
 20
-219.0580693862
 10
365.3037406903
 20
-217.9774848607
 10
363.1521460495
 20
-216.9869524514
 10
360.8783436579
 20
-216.0920112301
 10
358.495048693
 20
-215.2976657501
 10
356.0155891078
 20
-214.608358864
 10
353.4538318739
 20
-214.0279443515
 10
350.8241042858
 20
-213.5596688616
 10
348.1411096666
 20
-213.2061521433
 10
345.4198562456
 20
-212.9693703184
 10
342.6755603523
 20
-212.8506471376
 10
339.9235660737
 20
-212.8506471376
 10
337.1792701805
 20
-212.9693703184
 10
334.4580167595
 20
-213.2061521433
 10
331.7750221403
 20
-213.5596688616
 10
329.1452945521
 20
-214.0279443515
 10
326.5835373183
 20
-214.608358864
 10
324.1040777331
 20
-215.2976657501
 10
321.7207827682
 20
-216.0920112301
 10
319.4469803766
 20
-216.9869524514
 10
317.2953857358
 20
-217.9774848607
 10
315.278033088
 20
-219.0580693862
  0
LWPOLYLINE
  5
D7
330
1F
100
AcDbEntity
  8
0
  6
Continuous
 62
     7
370
    25
100
AcDbPolyline
 90
       94
 70
   128
 43
0.0
 10
368.8767256141
 20
-16.4804057529
 10
370.4682933468
 20
-17.3994833078
 10
372.1977761046
 20
-18.3981822935
 10
374.0572976951
 20
-19.4719485051
 10
376.0383655283
 20
-20.6158719068
 10
378.1319443736
 20
-21.8247413901
 10
380.3284800673
 20
-23.0930280444
 10
382.6179521962
 20
-24.4149764137
 10
384.9899109759
 20
-25.78452237
 10
387.4335352032
 20
-27.1954360786
 10
389.9376744024
 20
-28.6412733308
 10
392.4909067776
 20
-30.115439422
 10
395.0815774081
 20
-31.611205121
 10
397.6978693712
 20
-33.1217538209
 10
400.3278432549
 20
-34.6401739297
 10
402.9594977443
 20
-36.1595607736
 10
405.58082889
 20
-37.6729656443
 10
408.1798683041
 20
-39.1734847707
 10
410.7447700879
 20
-40.6542790896
 10
413.263821369
 20
-42.1085864093
 10
415.725529887
 20
-43.5297780626
 10
418.1186687752
 20
-44.9113543408
 10
420.4323081704
 20
-46.247023577
 10
422.6559038695
 20
-47.5306924976
 10
424.7793031742
 20
-48.7565000071
 10
426.792815849
 20
-49.9188520735
 10
428.6872551157
 20
-51.0124393087
 10
430.453980541
 20
-52.0322982293
 10
432.0849318694
 20
-52.9737334467
 10
433.5726635969
 20
-53.8324836327
 10
434.9103927148
 20
-54.6046213254
 10
436.0920085888
 20
-55.2866194626
 10
437.1121203734
 20
-55.8753665883
 10
437.9660800616
 20
-56.368186238
 10
438.6499851186
 20
-56.7628080357
 10
439.1607179947
 20
-57.0574513406
 10
439.4959487594
 20
-57.2507659257
 10
439.6541469552
 20
-57.3418753184
 10
439.6345908175
 20
-57.3303456171
 10
439.4373646399
 20
-57.216250886
 10
439.0633745797
 20
-57.0000971037
 10
438.5143302183
 20
-56.6828784342
 10
437.7927287566
 20
-56.266037675
 10
436.9018655512
 20
-55.751478423
 10
435.8458025048
 20
-55.1415529031
 10
434.6293680656
 20
-54.4390254597
 10
433.2581019101
 20
-53.6471257867
 10
431.7382654794
 20
-52.7694576689
 10
430.07679193
 20
-51.8100370009
 10
428.2812650607
 20
-50.7732066134
 10
426.3598745307
 20
-49.6637381703
 10
424.321389519
 20
-48.4866648686
 10
422.1751034054
 20
-47.247377249
 10
419.9308232349
 20
-45.9515197778
 10
417.5987748865
 20
-44.6050030062
 10
415.1896136104
 20
-43.2139792402
 10
412.7143186606
 20
-41.7847816985
 10
410.1841853926
 20
-40.3239564538
 10
407.6107673112
 20
-38.8381316339
 10
405.0057996794
 20
-37.3341193211
 10
402.3811718599
 20
-35.8187748702
 10
399.7488548748
 20
-34.2990007094
 10
397.1208645271
 20
-32.7817524277
 10
394.5091850097
 20
-31.2739277471
 10
391.9257399296
 20
-29.7824106323
 10
389.3823139407
 20
-28.3140230032
 10
386.8905132314
 20
-26.8754562966
 10
384.4617029628
 20
-25.4732718481
 10
382.106970061
 20
-24.11387333
 10
379.8370570333
 20
-22.8034563727
 10
377.6623228671
 20
-21.5480042446
 10
375.5926869714
 20
-20.3532463617
 10
373.6375934507
 20
-19.2246254981
 10
371.8059638543
 20
-18.167297885
 10
370.1061544535
 20
-17.1860963802
 10
368.5459255369
 20
-16.2854823262
 10
367.1323887264
 20
-15.4695759727
 10
365.8719990755
 20
-14.7420910829
 10
364.7705043606
 20
-14.10635433
 10
363.8329345446
 20
-13.5652687994
 10
363.0635622642
 20
-13.1212911799
 10
362.4659015131
 20
-12.7764553446
 10
362.0426773484
 20
-12.5323457389
 10
361.7958232566
 20
-12.3900471939
 10
361.726465349
 20
-12.3502361892
 10
361.8349170928
 20
-12.4130956849
 10
362.1206858966
 20
-12.578309803
 10
362.5824652081
 20
-12.8451535674
 10
363.2181555875
 20
-13.2123834013
 10
364.0248489022
 20
-13.6783496808
 10
364.9988652054
 20
-14.2409146088
 10
366.1357632731
 20
-14.8975191403
 10
367.4303537745
 20
-15.6451540876
 10
368.8767256141
 20
-16.4804057529
  0
LWPOLYLINE
  5
D8
330
1F
100
AcDbEntity
  8
0
  6
Continuous
 62
     7
370
    25
100
AcDbPolyline
 90
       85
 70
   128
 43
0.0
 10
374.6750019068
 20
-19.8276794079
 10
373.3727327765
 20
-19.0756373944
 10
372.223261777
 20
-18.4118174732
 10
371.2330347422
 20
-17.8399117649
 10
370.407572909
 20
-17.3631333625
 10
369.75149926
 20
-16.9841402856
 10
369.2684832052
 20
-16.705070454
 10
368.9612274112
 20
-16.5274671567
 10
368.8314454108
 20
-16.452333038
 10
368.8798668714
 20
-16.4800783824
 10
369.1062204726
 20
-16.6105538054
 10
369.509241809
 20
-16.8430243922
 10
370.086674707
 20
-17.1761947865
 10
370.8352870302
 20
-17.6082122243
 10
371.7508996553
 20
-18.1366497983
 10
372.8283877887
 20
-18.7585467543
 10
374.0617237727
 20
-19.4704362411
 10
375.4440139633
 20
-20.26832097
 10
376.9675237553
 20
-21.1477637013
 10
378.6237378389
 20
-22.1038307747
 10
380.40339181
 20
-23.131168148
 10
382.2965324269
 20
-24.2240453078
 10
384.2925745744
 20
-25.3763455679
 10
386.3803536183
 20
-26.5816297515
 10
388.5481935643
 20
-27.8331420797
 10
390.7839745594
 20
-29.123891726
 10
393.07518788
 20
-30.4466754344
 10
395.4090254938
 20
-31.7940714325
 10
397.7724297803
 20
-33.1585593892
 10
400.1521870442
 20
-34.5324983587
 10
402.5349907349
 20
-35.9082089073
 10
404.9075105945
 20
-37.2780099912
 10
407.2564835368
 20
-38.6342318852
 10
409.5687689644
 20
-39.9692815789
 10
411.8314383318
 20
-41.275700571
 10
414.0318396818
 20
-42.5461777967
 10
416.1576582321
 20
-43.7736150268
 10
418.1970151568
 20
-44.9511413184
 10
420.1385044651
 20
-46.0721890603
 10
421.9712654409
 20
-47.1304688802
 10
423.6850432293
 20
-48.1200715476
 10
425.2702704954
 20
-49.035448207
 10
426.718062157
 20
-49.8714985897
 10
428.0203365557
 20
-50.6235497293
 10
429.1698022868
 20
-51.2873726919
 10
430.16003459
 20
-51.8592753588
 10
430.9854964232
 20
-52.3360537612
 10
431.6415648038
 20
-52.7150377121
 10
432.1245808586
 20
-52.9941197111
 10
432.4318366526
 20
-53.1717230084
 10
432.561618653
 20
-53.2468571271
 10
432.5131971924
 20
-53.2191117827
 10
432.2868435912
 20
-53.0886363596
 10
431.8838222549
 20
-52.8561657728
 10
431.3063893568
 20
-52.5229832111
 10
430.5577770336
 20
-52.0909779408
 10
429.6421670427
 20
-51.562538846
 10
428.5646762751
 20
-50.9406434107
 10
427.3313429253
 20
-50.2287524033
 10
425.9490553689
 20
-49.4308661536
 10
424.4255403085
 20
-48.5514264638
 10
422.7693288591
 20
-47.5953578696
 10
420.989674888
 20
-46.5680204964
 10
419.0965342711
 20
-45.4751433366
 10
417.1004921236
 20
-44.3228430764
 10
415.0127130797
 20
-43.1175588928
 10
412.8448704995
 20
-41.8660480853
 10
410.6090947728
 20
-40.5752953976
 10
408.3178788181
 20
-39.25251321
 10
405.9840385701
 20
-37.9051187325
 10
403.6206369177
 20
-36.5406292552
 10
401.2408770197
 20
-35.1666918063
 10
398.858073329
 20
-33.7909690904
 10
396.4855534693
 20
-32.4211801738
 10
394.1365805271
 20
-31.0649582798
 10
391.8242950994
 20
-29.7299085861
 10
389.561625732
 20
-28.423489594
 10
387.361224382
 20
-27.1530123684
 10
385.2354058318
 20
-25.9255751383
 10
383.1960489071
 20
-24.7480366792
 10
381.2545648671
 20
-23.6269980633
 10
379.4218038913
 20
-22.5687182435
 10
377.7080208346
 20
-21.5791186175
 10
376.1227988368
 20
-20.6637389166
 10
374.6750019068
 20
-19.8276794079
  0
LWPOLYLINE
  5
D9
330
1F
100
AcDbEntity
  8
0
  6
Continuous
 62
     1
370
    25
100
AcDbPolyline
 90
       13
 70
   128
 43
0.0
 10
373.1193696308
 20
-134.5789809883
 10
375.1949213142
 20
-135.8609882345
 10
377.1158181003
 20
-137.2209593424
 10
378.8732936095
 20
-138.6526900383
 10
380.4593289098
 20
-140.1496472018
 10
381.8666879142
 20
-141.7050014652
 10
383.0889484966
 20
-143.3116543008
 10
384.1205321266
 20
-144.9622794593
 10
384.9567335036
 20
-146.6493400773
 10
385.5937383378
 20
-148.365141521
 10
386.0286398138
 20
-150.1018530558
 10
386.2594530784
 20
-151.8515527067
 10
386.2995637073
 20
-152.9481642343
  0
LWPOLYLINE
  5
DA
330
1F
100
AcDbEntity
  8
0
  6
Continuous
 62
     1
370
    25
100
AcDbPolyline
 90
       36
 70
   128
 43
0.0
 10
296.2995627188
 20
-152.9481642343
 10
296.3781718596
 20
-151.4133463553
 10
296.6601408616
 20
-149.6661467
 10
297.1457897774
 20
-147.9339226877
 10
297.8328993119
 20
-146.2245765247
 10
298.7183413789
 20
-144.545908532
 10
299.7980711978
 20
-142.9055791281
 10
301.0671608802
 20
-141.3110711921
 10
302.519823137
 20
-139.7696611714
 10
304.149429059
 20
-138.288381444
 10
305.9485400569
 20
-136.8739897157
 10
307.9089529709
 20
-135.5329429779
 10
310.0217154647
 20
-134.2713551665
 10
312.2771952547
 20
-133.09498761
 10
314.6650947628
 20
-132.0092040745
 10
317.1745247086
 20
-131.0189617346
 10
319.7940283932
 20
-130.1287758654
 10
322.5116598194
 20
-129.3427112408
 10
325.3150126671
 20
-128.6643501993
 10
328.1913019532
 20
-128.096794165
 10
331.1274015686
 20
-127.6426267708
 10
334.1099127668
 20
-127.3039229828
 10
337.125227384
 20
-127.0822278104
 10
340.1595897425
 20
-126.9785540256
 10
343.1991559197
 20
-126.9933722783
 10
346.2300530171
 20
-127.1266179397
 10
349.2384515999
 20
-127.3776812178
 10
352.2106289176
 20
-127.7454162811
 10
355.1330202705
 20
-128.2281450609
 10
357.9922967178
 20
-128.8236656144
 10
360.7754026146
 20
-129.5292616297
 10
363.4696471497
 20
-130.3417126894
 10
366.0627339799
 20
-131.2573113792
 10
368.5428330119
 20
-132.2718803949
 10
370.8986273227
 20
-133.3807905058
 10
373.1193696308
 20
-134.5789809883
  0
LWPOLYLINE
  5
DB
330
1F
100
AcDbEntity
  8
0
  6
Continuous
 62
     1
370
    25
100
AcDbPolyline
 90
       16
 70
   128
 43
0.0
 10
373.1193696308
 20
-134.5789809883
 10
375.2161843992
 20
-135.7894397972
 10
377.2007703419
 20
-136.9350910618
 10
379.0640713193
 20
-138.010700832
 10
380.7975863451
 20
-139.0113709373
 10
382.3934049826
 20
-139.9325290006
 10
383.8442437296
 20
-140.7699829026
 10
385.1434888235
 20
-141.5198998632
 10
386.285207437
 20
-142.1788585292
 10
387.2641891659
 20
-142.7438577126
 10
388.0759703954
 20
-143.2123152478
 10
388.7168461543
 20
-143.5821022045
 10
389.1838911877
 20
-143.8515215913
 10
389.4749731286
 20
-144.0193463729
 10
389.5887669854
 20
-144.0848126216
 10
389.5905108112
 20
-144.0857869352
  0
LWPOLYLINE
  5
DC
330
1F
100
AcDbEntity
  8
0
  6
Continuous
 62
     1
370
    25
100
AcDbPolyline
 90
       34
 70
   128
 43
0.0
 10
311.6482259806
 20
-99.0857899562
 10
311.6597501802
 20
-99.0925308479
 10
311.8126077447
 20
-99.1810139826
 10
312.1425336453
 20
-99.3717182827
 10
312.6480211732
 20
-99.6637940408
 10
313.3267617595
 20
-100.0558872568
 10
314.1756611917
 20
-100.5462245753
 10
315.1908450878
 20
-101.1325584193
 10
316.3676786116
 20
-101.81220428
 10
317.7007985765
 20
-102.5820830204
 10
319.1841141044
 20
-103.4386748733
 10
320.8108645775
 20
-104.3780650692
 10
322.5736222722
 20
-105.3959666565
 10
324.4643496527
 20
-106.4877391326
 10
326.4744132006
 20
-107.6483956734
 10
328.5946472934
 20
-108.8726514224
 10
330.8153713269
 20
-110.1549166509
 10
333.1264608378
 20
-111.4893347798
 10
335.5173646259
 20
-112.8698181251
 10
337.9771745601
 20
-114.2900745134
 10
340.4946664078
 20
-115.7436171688
 10
343.0583591039
 20
-117.223818706
 10
345.6565489956
 20
-118.7239217761
 10
348.2773835987
 20
-120.2370801317
 10
350.9089024279
 20
-121.7563974094
 10
353.539102851
 20
-123.274934733
 10
356.1559769675
 20
-124.7857654648
 10
358.7475919507
 20
-126.2819942162
 10
361.302119683
 20
-127.756789165
 10
363.8079045849
 20
-129.2034364249
 10
366.2535116897
 20
-130.6153221729
 10
368.6277852534
 20
-131.9860121143
 10
370.9198904078
 20
-133.3092420684
 10
373.1193696308
 20
-134.5789809883
  0
ENDSEC
  0
SECTION
  2
OBJECTS
  0
DICTIONARY
  5
C
330
0
100
AcDbDictionary
281
     1
  3
ACAD_GROUP
350
D
  3
ACAD_LAYOUT
350
1A
  3
ACAD_MLINESTYLE
350
17
  3
ACAD_PLOTSETTINGS
350
19
  3
ACAD_PLOTSTYLENAME
350
E
  3
ACAD_SCALELIST
350
47
  0
DICTIONARY
  5
D
102
{ACAD_REACTORS
330
C
102
}
330
C
100
AcDbDictionary
281
     1
  0
DICTIONARY
  5
1A
102
{ACAD_REACTORS
330
C
102
}
330
C
100
AcDbDictionary
281
     1
  3
Layout1
350
1E
  3
Layout2
350
26
  3
Model
350
22
  0
DICTIONARY
  5
17
102
{ACAD_REACTORS
330
C
102
}
330
C
100
AcDbDictionary
281
     1
  3
Standard
350
18
  0
DICTIONARY
  5
19
102
{ACAD_REACTORS
330
C
102
}
330
C
100
AcDbDictionary
281
     1
  0
ACDBDICTIONARYWDFLT
  5
E
102
{ACAD_REACTORS
330
C
102
}
330
C
100
AcDbDictionary
281
     1
  3
Normal
350
F
100
AcDbDictionaryWithDefault
340
F
  0
DICTIONARY
  5
47
102
{ACAD_REACTORS
330
C
102
}
330
C
100
AcDbDictionary
281
     1
  3
A0
350
48
  3
A1
350
49
  3
A2
350
4A
  3
A3
350
4B
  3
A4
350
4C
  3
A5
350
4D
  3
A6
350
4E
  3
A7
350
4F
  3
A8
350
50
  3
A9
350
51
  3
B0
350
52
  3
B1
350
53
  3
B2
350
54
  3
B3
350
55
  3
B4
350
56
  3
B5
350
57
  3
B6
350
58
  3
B7
350
59
  3
B8
350
5A
  3
B9
350
5B
  3
C0
350
5C
  3
C1
350
5D
  3
C2
350
5E
  3
C3
350
5F
  3
C4
350
60
  3
C5
350
61
  3
C6
350
62
  3
C7
350
63
  3
C8
350
64
  3
C9
350
65
  3
D0
350
66
  3
D1
350
67
  3
D2
350
68
  0
LAYOUT
  5
1E
102
{ACAD_REACTORS
330
1A
102
}
330
1A
100
AcDbPlotSettings
  1

  2
none_device
  4

  6

 40
0.0
 41
0.0
 42
0.0
 43
0.0
 44
0.0
 45
0.0
 46
0.0
 47
0.0
 48
0.0
 49
0.0
140
0.0
141
0.0
142
1.0
143
1.0
 70
   688
 72
     1
 73
     0
 74
     5
  7

 75
    16
147
1.0
148
0.0
149
0.0
100
AcDbLayout
  1
Layout1
 70
     1
 71
     1
 10
0.0
 20
0.0
 11
420.0
 21
297.0
 12
0.0
 22
0.0
 32
0.0
 14
1.0000000000E+20
 24
1.0000000000E+20
 34
1.0000000000E+20
 15
-1.0000000000E+20
 25
-1.0000000000E+20
 35
-1.0000000000E+20
146
0.0
 13
0.0
 23
0.0
 33
0.0
 16
1.0
 26
0.0
 36
0.0
 17
0.0
 27
1.0
 37
0.0
 76
     0
330
1B
  0
LAYOUT
  5
26
102
{ACAD_REACTORS
330
1A
102
}
330
1A
100
AcDbPlotSettings
  1

  2
none_device
  4

  6

 40
0.0
 41
0.0
 42
0.0
 43
0.0
 44
0.0
 45
0.0
 46
0.0
 47
0.0
 48
0.0
 49
0.0
140
0.0
141
0.0
142
1.0
143
1.0
 70
   688
 72
     1
 73
     0
 74
     5
  7

 75
    16
147
1.0
148
0.0
149
0.0
100
AcDbLayout
  1
Layout2
 70
     1
 71
     2
 10
0.0
 20
0.0
 11
0.0
 21
0.0
 12
0.0
 22
0.0
 32
0.0
 14
0.0
 24
0.0
 34
0.0
 15
0.0
 25
0.0
 35
0.0
146
0.0
 13
0.0
 23
0.0
 33
0.0
 16
1.0
 26
0.0
 36
0.0
 17
0.0
 27
1.0
 37
0.0
 76
     0
330
23
  0
LAYOUT
  5
22
102
{ACAD_REACTORS
330
1A
102
}
330
1A
100
AcDbPlotSettings
  1

  2
none_device
  4
Letter_(8.50_x_11.00_Inches)
  6

 40
6.35
 41
6.35
 42
6.35000508
 43
6.35000508
 44
215.9
 45
279.4
 46
0.0
 47
0.0
 48
0.0
 49
0.0
140
0.0
141
0.0
142
1.0
143
1.0
 70
  1712
 72
     1
 73
     0
 74
     0
  7

 75
     0
147
1.0
148
0.0
149
0.0
100
AcDbLayout
  1
Model
 70
     1
 71
     0
 10
0.0
 20
0.0
 11
279.4
 21
215.9
 12
0.0
 22
0.0
 32
0.0
 14
0.0
 24
0.0
 34
0.0
 15
279.4
 25
215.9
 35
0.0
146
0.0
 13
0.0
 23
0.0
 33
0.0
 16
1.0
 26
0.0
 36
0.0
 17
0.0
 27
1.0
 37
0.0
 76
     0
330
1F
331
29
  0
MLINESTYLE
  5
18
102
{ACAD_REACTORS
330
17
102
}
330
17
100
AcDbMlineStyle
  2
Standard
 70
     0
  3

 62
   256
 51
90.0
 52
90.0
 71
     2
 49
0.5
 62
   256
  6
BYLAYER
 49
-0.5
 62
   256
  6
BYLAYER
  0
ACDBPLACEHOLDER
  5
F
102
{ACAD_REACTORS
330
E
102
}
330
E
  0
SCALE
  5
48
102
{ACAD_REACTORS
330
47
102
}
330
47
100
AcDbScale
 70
     0
300
1:1
140
1.0
141
1.0
290
     1
  0
SCALE
  5
49
102
{ACAD_REACTORS
330
47
102
}
330
47
100
AcDbScale
 70
     0
300
1:2
140
1.0
141
2.0
290
     0
  0
SCALE
  5
4A
102
{ACAD_REACTORS
330
47
102
}
330
47
100
AcDbScale
 70
     0
300
1:4
140
1.0
141
4.0
290
     0
  0
SCALE
  5
4B
102
{ACAD_REACTORS
330
47
102
}
330
47
100
AcDbScale
 70
     0
300
1:5
140
1.0
141
5.0
290
     0
  0
SCALE
  5
4C
102
{ACAD_REACTORS
330
47
102
}
330
47
100
AcDbScale
 70
     0
300
1:8
140
1.0
141
8.0
290
     0
  0
SCALE
  5
4D
102
{ACAD_REACTORS
330
47
102
}
330
47
100
AcDbScale
 70
     0
300
1:10
140
1.0
141
10.0
290
     0
  0
SCALE
  5
4E
102
{ACAD_REACTORS
330
47
102
}
330
47
100
AcDbScale
 70
     0
300
1:16
140
1.0
141
16.0
290
     0
  0
SCALE
  5
4F
102
{ACAD_REACTORS
330
47
102
}
330
47
100
AcDbScale
 70
     0
300
1:20
140
1.0
141
20.0
290
     0
  0
SCALE
  5
50
102
{ACAD_REACTORS
330
47
102
}
330
47
100
AcDbScale
 70
     0
300
1:30
140
1.0
141
30.0
290
     0
  0
SCALE
  5
51
102
{ACAD_REACTORS
330
47
102
}
330
47
100
AcDbScale
 70
     0
300
1:40
140
1.0
141
40.0
290
     0
  0
SCALE
  5
52
102
{ACAD_REACTORS
330
47
102
}
330
47
100
AcDbScale
 70
     0
300
1:50
140
1.0
141
50.0
290
     0
  0
SCALE
  5
53
102
{ACAD_REACTORS
330
47
102
}
330
47
100
AcDbScale
 70
     0
300
1:100
140
1.0
141
100.0
290
     0
  0
SCALE
  5
54
102
{ACAD_REACTORS
330
47
102
}
330
47
100
AcDbScale
 70
     0
300
2:1
140
2.0
141
1.0
290
     0
  0
SCALE
  5
55
102
{ACAD_REACTORS
330
47
102
}
330
47
100
AcDbScale
 70
     0
300
4:1
140
4.0
141
1.0
290
     0
  0
SCALE
  5
56
102
{ACAD_REACTORS
330
47
102
}
330
47
100
AcDbScale
 70
     0
300
8:1
140
8.0
141
1.0
290
     0
  0
SCALE
  5
57
102
{ACAD_REACTORS
330
47
102
}
330
47
100
AcDbScale
 70
     0
300
10:1
140
10.0
141
1.0
290
     0
  0
SCALE
  5
58
102
{ACAD_REACTORS
330
47
102
}
330
47
100
AcDbScale
 70
     0
300
100:1
140
100.0
141
1.0
290
     0
  0
SCALE
  5
59
102
{ACAD_REACTORS
330
47
102
}
330
47
100
AcDbScale
 70
     0
300
1/128" = 1'-0"
140
0.0078125
141
12.0
290
     0
  0
SCALE
  5
5A
102
{ACAD_REACTORS
330
47
102
}
330
47
100
AcDbScale
 70
     0
300
1/64" = 1'-0"
140
0.015625
141
12.0
290
     0
  0
SCALE
  5
5B
102
{ACAD_REACTORS
330
47
102
}
330
47
100
AcDbScale
 70
     0
300
1/32" = 1'-0"
140
0.03125
141
12.0
290
     0
  0
SCALE
  5
5C
102
{ACAD_REACTORS
330
47
102
}
330
47
100
AcDbScale
 70
     0
300
1/16" = 1'-0"
140
0.0625
141
12.0
290
     0
  0
SCALE
  5
5D
102
{ACAD_REACTORS
330
47
102
}
330
47
100
AcDbScale
 70
     0
300
3/32" = 1'-0"
140
0.09375
141
12.0
290
     0
  0
SCALE
  5
5E
102
{ACAD_REACTORS
330
47
102
}
330
47
100
AcDbScale
 70
     0
300
1/8" = 1'-0"
140
0.125
141
12.0
290
     0
  0
SCALE
  5
5F
102
{ACAD_REACTORS
330
47
102
}
330
47
100
AcDbScale
 70
     0
300
3/16" = 1'-0"
140
0.1875
141
12.0
290
     0
  0
SCALE
  5
60
102
{ACAD_REACTORS
330
47
102
}
330
47
100
AcDbScale
 70
     0
300
1/4" = 1'-0"
140
0.25
141
12.0
290
     0
  0
SCALE
  5
61
102
{ACAD_REACTORS
330
47
102
}
330
47
100
AcDbScale
 70
     0
300
3/8" = 1'-0"
140
0.375
141
12.0
290
     0
  0
SCALE
  5
62
102
{ACAD_REACTORS
330
47
102
}
330
47
100
AcDbScale
 70
     0
300
1/2" = 1'-0"
140
0.5
141
12.0
290
     0
  0
SCALE
  5
63
102
{ACAD_REACTORS
330
47
102
}
330
47
100
AcDbScale
 70
     0
300
3/4" = 1'-0"
140
0.75
141
12.0
290
     0
  0
SCALE
  5
64
102
{ACAD_REACTORS
330
47
102
}
330
47
100
AcDbScale
 70
     0
300
1" = 1'-0"
140
1.0
141
12.0
290
     0
  0
SCALE
  5
65
102
{ACAD_REACTORS
330
47
102
}
330
47
100
AcDbScale
 70
     0
300
1-1/2" = 1'-0"
140
1.5
141
12.0
290
     0
  0
SCALE
  5
66
102
{ACAD_REACTORS
330
47
102
}
330
47
100
AcDbScale
 70
     0
300
3" = 1'-0"
140
3.0
141
12.0
290
     0
  0
SCALE
  5
67
102
{ACAD_REACTORS
330
47
102
}
330
47
100
AcDbScale
 70
     0
300
6" = 1'-0"
140
6.0
141
12.0
290
     0
  0
SCALE
  5
68
102
{ACAD_REACTORS
330
47
102
}
330
47
100
AcDbScale
 70
     0
300
1'-0" = 1'-0"
140
12.0
141
12.0
290
     0
  0
ENDSEC
  0
EOF
